Rise Against - Chamber The Cartridge Chords & Tabs

 

Chamber The Cartridge Chords & Tabs

Rise Against Chords & Tabs

Version: 1 Type: Tab

Chamber The Cartridge Tab

Chamber The Cartridge Ė Rise Against
Tabbed By; Pandrew
Tuning: Standard

This is Rise Againstís newest song thatís gona kick off their new album, The Sufferer
Witness, thing song so far is only available on their myspace at
and I tried tabbin it from there but I had to rebuffer it loads of times and start over 
at the beginning and I was getting annoyed so there are prob loads of mistakes in here 
send mistakes to
but just thought Iíd post this up cuz there arenít any tabs for this song yet

Rise Against kicks major ass

/ - slide up

Intro Riff x 2
e|-----------------------------------------------------------------------|
B|-----------------------------------------------------------------------|
G|-5-7/8-7/8/108-7/87-53/5-7/8-7/8/108-7/12-10875------------------------|
D|-x-x/x-x/x/x-x-x/xx-xx/x-z/x-x/x/x-x-x/x--x-xxx------------------------|
A|-3-5/6-5/6/8-6-5/65-31/3-5/6-5/6/8-6-5/10-8-653------------------------|
E|--------------------------------------------------------Pickslide------|

Verse Riff x2
e|---------------------------------------------------------------------|
B|---------------------------------------------------------------------|
G|-55555555------3333-55555555-8888-3333-------------------------------|
D|-55555555-6666-3333-55555555-8888-3333-------------------------------|
A|-33333333-6666-1111-33333333-6666-1111-------------------------------|
E|----------4444-------------------------------------------------------|
[ Tab from: https://www.guitartabs.cc/tabs/r/rise_against/chamber_the_cartridge_tab.html ]
Breakdown Riff
e|---------------------------------------------------------------------|
B|---------------------------------------------------------------------|
G|------------------------------------------------5---3-3--------------|
D|------------------------------------------------5-6-3-3--------------|
A|------------------------------------------------3-6-1-1--------------|
E|-4-3-3-3-(x6)-4-1-1-1-1-1-1-1-1----4-3-3-3-(x6)---4------------------|

Chorus Riff x4
e|---------------------------------------------------------------------|
B|---------------------------------------------------------------------|
G|-55555555--------------------33333333--------------------------------|
D|-55555555-66666666--33333333-33333333--------------------------------|
A|-33333333-66666666--33333333-11111111--------------------------------|
E|----------44444444--11111111-----------------------------------------|

After Chorus Riff
e|---------------------------------------------------------------------|
B|---------------------------------------------------------------------|
G|-55555555/1818181818181818-------------------------------------------|
D|-55555555/x-x-x-x-x-x-x-x--------------------------------------------|
A|-33333333/1515151515151515-------------------------------------------|
E|---------------------------------------------------------------------|

Repeat Verse Riff x2
Repeat Breakdown Riff
Repeat Chorus Riff x4

Interlude Riff x 8
e|---------------------------------------------------------------------|
B|---------------------------------------------------------------------|
G|-55555555-33333333---------------------------------------------------|
D|-55555555-33333333-33333333-66666666---------------------------------|
A|-33333333-11111111-33333333-66666666---------------------------------|
E|-------------------11111111-44444444---------------------------------|

Repeat Intro Riff 1x

Repeat Chorus Riff 3x

I dont expect good ratings on this as I said I think there are many mistakes, but send
to pandrew947@gmail.com or leave a comment
thanks