Rise Against - But Tonight We Dance Chords & Tabs

 

But Tonight We Dance Chords & Tabs

Rise Against Chords & Tabs

Version: 1 Type: Bass Tab

But Tonight We Dance Bass Tab

SONG: But Tonight We Dance
ALBUM: The Sufferer and the Witness
ARTIST: Rise Against

VERSE

Gb|-9---9---9---9---9---9---9---9----|-10--10--10--10--10--10--10-10---|
Db|-7---7---7---7---7---7---7---7----|-0---0---0---0---0---0---0---0----|
Ab|----------------------------------|----------------------------------|
Eb|----------------------------------|----------------------------------|
    1 + + + 2 + + + 3 + + + 4 + + +    1 + + + 2 + + + 3 + + + 4 + + + 

Gb|-7---7---7---7---7---7---7---7----|-9---9---9---9---9---9---9---9----|
Db|-5---5---5---5---5---5---5---5----|-7---7---7---7---7---7---7---7----|
Ab|----------------------------------|----------------------------------|
Eb|----------------------------------|----------------------------------|
    1 + + + 2 + + + 3 + + + 4 + + +    1 + + + 2 + + + 3 + + + 4 + + + 

Gb|-5---5---5---5---5---5---5---5----|-7---7---7---7---7---7---7---7----|
Db|-3---3---3---3---3---3---3---3----|-5---5---5---5---5---5---5---5----|
Ab|----------------------------------|----------------------------------|
Eb|----------------------------------|----------------------------------|
    1 + + + 2 + + + 3 + + + 4 + + +    1 + + + 2 + + + 3 + + + 4 + + + 

Gb|-4---4---4---4---4---4---4---4----|-9---9---9---9---9---9---9---9----|
Db|-2---2---2---2---2---2---2---2----|-7---7---7---7---7---7---7---7----|
Ab|----------------------------------|----------------------------------|
Eb|----------------------------------|----------------------------------|
    1 + + + 2 + + + 3 + + + 4 + + +    1 + + + 2 + + + 3 + + + 4 + + + 

Gb|-9---9---9---9---9---9---9---9----|-10--10--10--10--10--10--10-10---|
Db|-7---7---7---7---7---7---7---7----|-0---0---0---0---0---0---0---0----|
Ab|----------------------------------|----------------------------------|
Eb|----------------------------------|----------------------------------|
    1 + + + 2 + + + 3 + + + 4 + + +    1 + + + 2 + + + 3 + + + 4 + + + 

Gb|-7---7---7---7---7---7---7---7----|-9---9---9---9---9---9---9---9----|
Db|-5---5---5---5---5---5---5---5----|-7---7---7---7---7---7---7---7----|
Ab|----------------------------------|----------------------------------|
Eb|----------------------------------|----------------------------------|
    1 + + + 2 + + + 3 + + + 4 + + +    1 + + + 2 + + + 3 + + + 4 + + + 

Gb|-5---5---5---5---5---5---5---5----|-7---7---7---7---7---7---7---7----|
Db|-3---3---3---3---3---3---3---3----|-5---5---5---5---5---5---5---5----|
Ab|----------------------------------|----------------------------------|
Eb|----------------------------------|----------------------------------|
    1 + + + 2 + + + 3 + + + 4 + + +    1 + + + 2 + + + 3 + + + 4 + + + 

Gb|-4---4---4---4---4---4---4---4----|-9---9---9---9---9---9---9---9----|
Db|-2---2---2---2---2---2---2---2----|-7---7---7---7---7---7---7---7----|
Ab|----------------------------------|----------------------------------|
Eb|----------------------------------|----------------------------------|
    1 + + + 2 + + + 3 + + + 4 + + +    1 + + + 2 + + + 3 + + + 4 + + + 

CHORUS

Gb|----------------------------------|----------------------------------|
Db|----------------------------------|----------------------------------|
Ab|----------------------------------|----------------------------------|
Eb|-1---1---1---1---1---1---1---1----|-3---3---3---3---3---3---3---3----|
    1 + + + 2 + + + 3 + + + 4 + + +    1 + + + 2 + + + 3 + + + 4 + + + 
Gb|----------------------------------|----------------------------------|
Db|----------------------------------|----------------------------------|
Ab|----------------------------------|----------------------------------|
Eb|-0---0---0---0---0---0---0---0----|-5---5---5---5---5---5---5---5----|
    1 + + + 2 + + + 3 + + + 4 + + +    1 + + + 2 + + + 3 + + + 4 + + + 

Gb|----------------------------------|----------------------------------|
Db|----------------------------------|----------------------------------|
Ab|----------------------------------|----------------------------------|
Eb|-1---1---1---1---1---1---1---1----|-3---3---3---3---3---3---3---3----|
    1 + + + 2 + + + 3 + + + 4 + + +    1 + + + 2 + + + 3 + + + 4 + + + 

Gb|----------------------------------|----------------------------------|
Db|----------------------------------|----------------------------------|
Ab|----------------------------------|----------------------------------|
Eb|-0---0---0---0---0---0---0---0----|-5---5---5---5---5---5---5---5----|
    1 + + + 2 + + + 3 + + + 4 + + +    1 + + + 2 + + + 3 + + + 4 + + + 

Gb|----------------------------------|----------------------------------|
Db|----------------------------------|----------------------------------|
Ab|----------------------------------|----------------------------------|
Eb|-1---1---1---1---1---1---1---1----|-3---3---3---3---3---3---3---3----|
    1 + + + 2 + + + 3 + + + 4 + + +    1 + + + 2 + + + 3 + + + 4 + + + 

Gb|----------------------------------|----------------------------------|
Db|----------------------------------|----------------------------------|
Ab|----------------------------------|----------------------------------|
Eb|-0---0---0---0---0---0---0---0----|-5---5---5---5---5---5---5---5----|
    1 + + + 2 + + + 3 + + + 4 + + +    1 + + + 2 + + + 3 + + + 4 + + + 

Gb|----------------------------------|----------------------------------|
Db|----------------------------------|----------------------------------|
Ab|----------------------------------|----------------------------------|
Eb|-1---1---1---1---1---1---1---1----|-3---3---3---3---3---3---3---3----|
    1 + + + 2 + + + 3 + + + 4 + + +    1 + + + 2 + + + 3 + + + 4 + + + 

VERSE

Gb|-9--------------------------------|-10-------------------------------|
Db|-7--------------------------------|-0--------------------------------|
Ab|----------------------------------|----------------------------------|
Eb|----------------------------------|----------------------------------|
    1 + + + 2 + + + 3 + + + 4 + + +    1 + + + 2 + + + 3 + + + 4 + + + 

Gb|-7--------------------------------|-9--------------------------------|
Db|-5--------------------------------|-7--------------------------------|
Ab|----------------------------------|----------------------------------|
Eb|----------------------------------|----------------------------------|
    1 + + + 2 + + + 3 + + + 4 + + +    1 + + + 2 + + + 3 + + + 4 + + + 

Gb|-5--------------------------------|-7--------------------------------|
Db|-3--------------------------------|-5--------------------------------|
Ab|----------------------------------|----------------------------------|
Eb|----------------------------------|----------------------------------|
    1 + + + 2 + + + 3 + + + 4 + + +    1 + + + 2 + + + 3 + + + 4 + + + 

Gb|-4--------------------------------|-9--------------------------------|
Db|-2--------------------------------|-7--------------------------------|
Ab|----------------------------------|----------------------------------|
Eb|----------------------------------|----------------------------------|
    1 + + + 2 + + + 3 + + + 4 + + +    1 + + + 2 + + + 3 + + + 4 + + + 

Gb|----------------------------------|----------------------------------|
Db|----------------------------------|----------------------------------|
Ab|-0---0---0---0---0---0---0---0----|-5---5---5---5---5---5---5---5----|
Eb|----------------------------------|----------------------------------|
    1 + + + 2 + + + 3 + + + 4 + + +    1 + + + 2 + + + 3 + + + 4 + + + 

Gb|----------------------------------|----------------------------------|
Db|----------------------------------|----------------------------------|
Ab|----------------------------------|-0---0---0---0---0---0---0---0----|
Eb|-3---3---3---3---3---3---3---3----|----------------------------------|
    1 + + + 2 + + + 3 + + + 4 + + +    1 + + + 2 + + + 3 + + + 4 + + + 

Gb|----------------------------------|----------------------------------|
Db|----------------------------------|----------------------------------|
Ab|----------------------------------|----------------------------------|
Eb|-1---1---1---1---1---1---1---1----|-3---3---3---3---3---3---3---3----|
    1 + + + 2 + + + 3 + + + 4 + + +    1 + + + 2 + + + 3 + + + 4 + + + 

Gb|----------------------------------|----------------------------------|
Db|----------------------------------|-7---7---7---5---5----------------|
Ab|----------------------------------|---------------------7---7---7----|
Eb|-0---0---0---0---0---0---0---0----|----------------------------------|
    1 + + + 2 + + + 3 + + + 4 + + +    1 + + + 2 + + + 3 + + + 4 + + + 

CHORUS

Gb|----------------------------------|----------------------------------|
Db|----------------------------------|----------------------------------|
Ab|----------------------------------|----------------------------------|
Eb|-1---1---1---1---1---1---1---1----|-3---3---3---3---3---3---3---3----|
    1 + + + 2 + + + 3 + + + 4 + + +    1 + + + 2 + + + 3 + + + 4 + + + 
Gb|----------------------------------|----------------------------------|
Db|----------------------------------|----------------------------------|
Ab|----------------------------------|----------------------------------|
Eb|-0---0---0---0---0---0---0---0----|-5---5---5---5---5---5---5---5----|
    1 + + + 2 + + + 3 + + + 4 + + +    1 + + + 2 + + + 3 + + + 4 + + + 
[ Tab from: https://www.guitartabs.cc/tabs/r/rise_against/but_tonight_we_dance_btab.html ]
Gb|----------------------------------|----------------------------------|
Db|----------------------------------|----------------------------------|
Ab|----------------------------------|----------------------------------|
Eb|-1---1---1---1---1---1---1---1----|-3---3---3---3---3---3---3---3----|
    1 + + + 2 + + + 3 + + + 4 + + +    1 + + + 2 + + + 3 + + + 4 + + + 

Gb|----------------------------------|----------------------------------|
Db|----------------------------------|----------------------------------|
Ab|----------------------------------|----------------------------------|
Eb|-0---0---0---0---0---0---0---0----|-5---5---5---5---5---5---5---5----|
    1 + + + 2 + + + 3 + + + 4 + + +    1 + + + 2 + + + 3 + + + 4 + + + 

Gb|----------------------------------|----------------------------------|
Db|----------------------------------|----------------------------------|
Ab|----------------------------------|----------------------------------|
Eb|-1---1---1---1---1---1---1---1----|-3---3---3---3---3---3---3---3----|
    1 + + + 2 + + + 3 + + + 4 + + +    1 + + + 2 + + + 3 + + + 4 + + + 

Gb|----------------------------------|----------------------------------|
Db|----------------------------------|----------------------------------|
Ab|----------------------------------|----------------------------------|
Eb|-0---0---0---0---0---0---0---0----|-5---5---5---5---5---5---5---5----|
    1 + + + 2 + + + 3 + + + 4 + + +    1 + + + 2 + + + 3 + + + 4 + + + 

Gb|----------------------------------|----------------------------------|
Db|----------------------------------|----------------------------------|
Ab|----------------------------------|----------------------------------|
Eb|-1---1---1---1---1---1---1---1----|-3---3---3---3---3---3---3---3----|
    1 + + + 2 + + + 3 + + + 4 + + +    1 + + + 2 + + + 3 + + + 4 + + + 

BRIDGE

Gb|----------------------------------|----------------------------------|
Db|----------------------------------|----------------------------------|
Ab|-0---0----------------------------|----------------------------------|
Eb|----------------------------------|----------------------------------|
    1 + + + 2 + + + 3 + + + 4 + + +    1 + + + 2 + + + 3 + + + 4 + + + 

Gb|----------------------------------|----------------------------------|
Db|----------------------------------|----------------------------------|
Ab|-0---0----------------------------|----------------------------------|
Eb|----------------------------------|----------------------------------|
    1 + + + 2 + + + 3 + + + 4 + + +    1 + + + 2 + + + 3 + + + 4 + + + 

Gb|----------------------------------|----------------------------------|
Db|-----------------------------2----|-3---3---3---3---3---3---3---3----|
Ab|-0---0---0---0---0---0---0--------|----------------------------------|
Eb|----------------------------------|----------------------------------|
    1 + + + 2 + + + 3 + + + 4 + + +    1 + + + 2 + + + 3 + + + 4 + + + 

Gb|----------------------------------|----------------------------------|
Db|-----------------------------0----|-2---2---2---2---2---2---2---2----|
Ab|-3---3---3---3---3---3---3--------|----------------------------------|
Eb|----------------------------------|----------------------------------|
    1 + + + 2 + + + 3 + + + 4 + + +    1 + + + 2 + + + 3 + + + 4 + + + 

Gb|----------------------------------|----------------------------------|
Db|-----------------------------2----|-3---3---3---3---3---3---3---2----|
Ab|-0---0---0---0---0---0---0--------|----------------------------------|
Eb|----------------------------------|----------------------------------|
    1 + + + 2 + + + 3 + + + 4 + + +    1 + + + 2 + + + 3 + + + 4 + + + 

Gb|----------------------------------|----------------------------------|
Db|-5---5---5---5---5---5---5---3----|-2---2---2---2---2---2---2---2----|
Ab|----------------------------------|----------------------------------|
Eb|----------------------------------|----------------------------------|
    1 + + + 2 + + + 3 + + + 4 + + +    1 + + + 2 + + + 3 + + + 4 + + + 

Gb|----------------------------------|----------------------------------|
Db|-----------------------------2----|-3---3---3---3---3---3---3---3----|
Ab|-0---0---0---0---0---0---0--------|----------------------------------|
Eb|----------------------------------|----------------------------------|
    1 + + + 2 + + + 3 + + + 4 + + +    1 + + + 2 + + + 3 + + + 4 + + + 

Gb|----------------------------------|----------------------------------|
Db|-----------------------------0----|-2---2---2---2---2---2---2---2----|
Ab|-3---3---3---3---3---3---3--------|----------------------------------|
Eb|----------------------------------|----------------------------------|
    1 + + + 2 + + + 3 + + + 4 + + +    1 + + + 2 + + + 3 + + + 4 + + + 

Gb|----------------------------------|----------------------------------|
Db|-----------------------------2----|-3---3---3---3---3---3---3---3----|
Ab|-0---0---0---0---0---0---0--------|----------------------------------|
Eb|----------------------------------|----------------------------------|
    1 + + + 2 + + + 3 + + + 4 + + +    1 + + + 2 + + + 3 + + + 4 + + + 

Gb|----------------------------------|----------------------------------|
Db|-5---5---5---5---5---5---5---3----|-2---2---2---2---2---2---2---2----|
Ab|----------------------------------|----------------------------------|
Eb|----------------------------------|----------------------------------|
    1 + + + 2 + + + 3 + + + 4 + + +    1 + + + 2 + + + 3 + + + 4 + + + 

GUITAR SOLO

Gb|----------------------------------|----------------------------------|
Db|----------------------------------|----------------------------------|
Ab|-0---0---0---0---0---0---0---0----|----------------------------------|
Eb|----------------------------------|-1---1---1---1---1---1---1---1----|
    1 + + + 2 + + + 3 + + + 4 + + +    1 + + + 2 + + + 3 + + + 4 + + + 

Gb|----------------------------------|----------------------------------|
Db|----------------------------------|----------------------------------|
Ab|-3---3---3---3---3---3---3---3----|----------------------------------|
Eb|----------------------------------|-0---0---0---0---0---0---0---0----|
    1 + + + 2 + + + 3 + + + 4 + + +    1 + + + 2 + + + 3 + + + 4 + + + 

Gb|----------------------------------|----------------------------------|
Db|----------------------------------|----------------------------------|
Ab|-0---0---0---0---0---0---0---0----|----------------------------------|
Eb|----------------------------------|-1---1---1---1---1---1---1---1----|
    1 + + + 2 + + + 3 + + + 4 + + +    1 + + + 2 + + + 3 + + + 4 + + + 

Gb|----------------------------------|----------------------------------|
Db|----------------------------------|----------------------------------|
Ab|-3---3---3---3---3---3---3---3----|----------------------------------|
Eb|----------------------------------|-0---0---0---0---0---0---0---0----|
    1 + + + 2 + + + 3 + + + 4 + + +    1 + + + 2 + + + 3 + + + 4 + + + 

CHORUS

Gb|----------------------------------|----------------------------------|
Db|----------------------------------|----------------------------------|
Ab|----------------------------------|----------------------------------|
Eb|-1---1---1---1---1---1---1---1----|-3---3---3---3---3---3---3---3----|
    1 + + + 2 + + + 3 + + + 4 + + +    1 + + + 2 + + + 3 + + + 4 + + + 
Gb|----------------------------------|----------------------------------|
Db|----------------------------------|----------------------------------|
Ab|----------------------------------|----------------------------------|
Eb|-0---0---0---0---0---0---0---0----|-5---5---5---5---5---5---5---5----|
    1 + + + 2 + + + 3 + + + 4 + + +    1 + + + 2 + + + 3 + + + 4 + + + 

Gb|----------------------------------|----------------------------------|
Db|----------------------------------|----------------------------------|
Ab|----------------------------------|----------------------------------|
Eb|-1---1---1---1---1---1---1---1----|-3---3---3---3---3---3---3---3----|
    1 + + + 2 + + + 3 + + + 4 + + +    1 + + + 2 + + + 3 + + + 4 + + + 

Gb|----------------------------------|----------------------------------|
Db|----------------------------------|----------------------------------|
Ab|----------------------------------|---------------------2---3--------|
Eb|-0---0---0---0---0---0---0---0----|-5---5---5---5---5----------------|
    1 + + + 2 + + + 3 + + + 4 + + +    1 + + + 2 + + + 3 + + + 4 + + + 

Gb|----------------------------------|----------------------------------|
Db|----------------------------------|----------------------------------|
Ab|----------------------------------|----------------------------------|
Eb|-1---1---1---1---1---1---1---1----|-3---3---3---3---3---3---3---3----|
    1 + + + 2 + + + 3 + + + 4 + + +    1 + + + 2 + + + 3 + + + 4 + + + 

Gb|----------------------------------|----------------------------------|
Db|----------------------------------|----------------------------------|
Ab|----------------------------------|----------------------------------|
Eb|-0---0---0---0---0---0---0---0----|-5---5---5---5---5---5---5---5----|
    1 + + + 2 + + + 3 + + + 4 + + +    1 + + + 2 + + + 3 + + + 4 + + + 

Gb|----------------------------------|----------------------------------|
Db|-3---3---3---3---3---3---3---3----|-5--------------------------------|
Ab|----------------------------------|----------------------------------|
Eb|----------------------------------|----------------------------------|
    1 + + + 2 + + + 3 + + + 4 + + +    1 + + + 2 + + + 3 + + + 4 + + + 

Gb|----------------------------------||
Db|----------------------------------||
Ab|----------------------------------||
Eb|----------------------------------||
    1 + + + 2 + + + 3 + + + 4 + + +