Richie Sambora - One Light Burning Chords & Tabs

 

One Light Burning Chords & Tabs

Richie Sambora Chords & Tabs

Version: 1 Type: Tab

One Light Burning Tab

e---------------------------------------17-15-15-------|
B--2---2-----8-10p8-10br~---10br-8-10b-----------17-17-|
G------------------------------------------------------|
D------------------------------------------------------|
A------------------------------------------------------|
E------------------------------------------------------|

e------------------------------------------------------|
B--15-15-12s15-----------------------------------------|
G------------------------------------------------------|
D----------------12h14p12~-----------------------------|
A------------------------------------------------------|
E------------------------------------------------------|

Verse

e--------------------------|
B--------------------------|
G-----12-14-14br14bh-12~---|
D--14----------------------|
A--------------------------|
E--------------------------|

Acoustic (top) joins in with electric (bottom)

    ^    ^        ^     ^
 e--0-------------0-----0------------0----------------|
 B--1----0--------1-----1--------3-------3------------|
 G--2----0--------2-----0-0----2---2---2---2--------0-|
 D--2----2--------2-----2----0--------------------0---|
 A--0----2--------0---2-3-----------------------2-----|
 E-------0------------------------------------3-------|

 E------------15--17~--15~----------------------------|
 B------15s17---17------------------------------------|
 G----------------------------------------------------|
 D----------------------------------------------------|
 A----------------------------------------------------|
 E----------------------------------------------------|

 		CHORUS ^  ^  ^
 E-------------------------------------------5--1s3--|
 B------------------------5---------------3--5--1s3--|
 G------------------2--4--5---------------4--5--2s4--|
 D------------------3--5--7---------------5--7--3s5--|
 A------------------3--5--7---------------5--7--3s5--|
 E------------------1--3--5---------------3--5--1s3--|

 E------5-5~-----------------------------------------|
 B--1s5----------------------7br---------------------|
 G---------------------------7br-5---5-7-------------|
 D---------------------------------7------7--5~------|
 A---------------------------------------------------|
 E---------------------------------------------------|


**  ^      ^  ^                  **
 e-------------------------------
 B------------5------------------
 G--2------4--5------------------
 D--3------5--7------------------
 A--3------5--7------------------
 E--1------3--5------------------

 e-------------------------------
 B-----15b-15~---12br------------
 G--------------------12---------
 D----------------------12p10s9~-
 A-------------------------------
 E-------------------------------  Repeat Verse

CHORUS as before without part between **, then

 ^    ^
 e------------5--------------------------------------
 B------------5--------------------1---5-1---3-------
 G--2----4----5------------------4-0-4-5-2---4-------
 D--3----5----7------------------5-2-5-7-3---5-------
 A--3----5----7------------------5-3-5-7-3---5-------
 E--1----3----5------------------3---3-5-1---3-------


 e---------------------------------------------------
 B---15b-15~-----------------------------------5h8---
 G-------------19br-17-19-------------------5h7---7~-
 D------------------------19-19~---------5h7---------
 A---------------------------------------------------
 E---------------------------------------------------

Solo

                                            AH  AH
e--8s10s8-5---------------8---10b(12)(12)-8~-------------------|
B--8s10s9-5---5-5-------8---8----------------10b-10bgr-8-8-10b-|
G-----------7-5-5--7-s9----------------------------------------|
D--------------------------------------------------------------|
A--------------------------------------------------------------|
E--------------------------------------------------------------|


e-----17----19bgr-17-------------------------------------------|
B--17----17----------20-20b-20~--------------------------------|
G-------------------------------19b-19~-----5-7b(9)(9)7b(8)7-5-|
D---------------------------------------5s7--------------------|
A--------------------------------------------------------------|
E--------------------------------------------------------------|

[ Tab from: https://www.guitartabs.cc/tabs/r/richie_sambora/one_light_burning_tab.html ]
e---------------------------------15-17br-15~-
B------------------------------15-------------
G---------------12----12-12-14----------------
D--7br-5~-------12----12-12-------------------
A---------12-14----14-------------------------
E---------------------------------------------


Chorus (acoustic as before)

e--8-7--------5-8-5-----5~--7br-------5~-5------------------|
B------8----5-------5-----------8----------8~---------------|
G--------7~-----------5-----------7s5---------5-----5-5-----|
D-----------------------------------------------7-7-----7~--|
A-----------------------------------------------------------|
E-----------------------------------------------------------|

e-----------------------17-20b-20br-20-19-19--------------------|
B--8b~-8-------------17---------------------17-17-20b-20--------|
G--------7br-5---5-7------------------------------------19br-17-|
D--------------7------------------------------------------------|
A---------------------------------------------------------------|
E---------------------------------------------------------------|

e---------------------------------19b-19-17------|
B-------------------------------------------10~--|
G------------------------------------------------|
D--------17-19~-17-17h19p17-19-17----------------|
A--15s19-----------------------------------------|
E------------------------------------------------|

e--5s17---19-19b-19-19b-19-17--------------------|
B------17---------------------20~----------------|
G------------------------------------------------|
D------------------------------------------------|
A------------------------------------------------|
E------------------------------------------------|

e------------5-20----19----17--------19br-------------------------|
B-----------------17----17----20-20~------20----------------------|
G------5-7br---------------------------------19-17s16-------------|
D--5-7------------------------------------------------17----------|
A--------------------------------------------------------17p15s14-|
E-----------------------------------------------------------------|

       NH   NH
e------------------------------------------------------|
B------2~---<5~----------------------------------------|
G------------------<0---14br-12---12~-12h14------------|
D--------------------------------14----------12h14p12--|
A--15--------------------------------------------------|
E------------------------------------------------------|


e----------15b-15-14br-----------------------|
B-----15---------------15--------------------|
G--12---12----------------14-----------------|
D--------------------------------------------|
A-------------------------------------5-2~---|
E-----------------------------5br-3-5------3-|

e---------------------------------------------------------|
B--------13-13p12-----------------------------------------|
G--12s14----------12-------------------------2-2b-2p0-----|
D--------------------12s10s9-10-9-------------------------|
A---------------------------------10s12-12~------------h2-|
E---------------------------------------------------------|

e--------------------------------------------------------------------|
B--------------------------------------------------------------------|
G------------------12-12h14-14h16-16-14s12-12------------------12----|
D--5~-7/5-7b/-s14---------------------------14-14p12-12-12h14--14~---|
A--------------------------------------------------------------------|
E--------------------------------------------------------------------|


e------------------------------------17-17br-17-17br-15~-17b-17~-----|
B--------------------------------------------------------------------|
G--------------5-5s4-4s2-2p0-0/4~/-----------------------------------|
D----------5s7-------------------------------------------------------|
A--12-12~------------------------------------------------------------|
E--------------------------------------------------------------------|


e-------------------------------------------------------------------|
B-------------------------------------------------------------------|
G--12--12-12-x12-x12-x12----------12-------12-x12-12-12-------------|
D------------------------14-14-14----14p12--------------14p12-14-14-|
A-------------------------------------------------------------------|
E-------------------------------------------------------------------|


e----------------|
B----------------|
G-----12~--------|
D--14-----14p12--|
A----------------|
E----------------|

Notation

b - bend
br - bend and release
bgr - bend and gradual release
s - slide to note
h - hammer on to next note
p - pull off to nexy note
x - mute following note
 - press whammy bar
/ - release whammy bar
/ - dive bomb
AH - artificial harmonic
NH - natural harmonic
~ - vibrato
< - volume swell
 - volume fade
^ - arpeggio