Richie Sambora - Made In America Chords & Tabs

 

Made In America Chords & Tabs

Richie Sambora Chords & Tabs

Version: 2 Type: Tab

Made In America Tab

   
Made In America
---------------
By: Richie Sambora
From the album: Undiscovered Soul
Transcribed by: Michael Mikkelsen (webdue@hotmail.com)

Riff 1:
-------
    d u d  d u d   d u d d u d d u d
E|--3-3-3--3-3-3---3-3-3-3-3-3-2-2-2--|
B|--3-3-3--3-3-3---3-3-3-3-3-3-3-3-3--|
G|--0-0-0--0-0-0---0-0-0-0-0-0-2-2-2--|
D|--2-2-2--0-0-0---2-2-2-0-0-0-0-0-0--|
A|--3-3-3--2-2-2---3-3-3-2-2-2--------|
E|---------3-3-3---------3-3-3--------|

Riff 2:
-------
    d d d u d d  d d d  d u d d
E|--3-3-------0------3-------(2)-|
B|--3-3-x-x---0------3--x-x---3--|
G|--0-0-x-x---0------0--x-x---2--|
D|--0-0-x-x---2------2--x-x-0----|
A|--2---x-x---2--3---3--x-x------|
E|--3-------0------0-------------|

Riff 3:
-------
    d d d u d d  d d d u d d
E|----3-------0----3------(2)-|
B|----3-x-x---0----3-x-x---3--|
G|----0-x-x---0----0-x-x---2--|
D|----0-x-x---2----2-x-x-0----|
A|----2-x-x---2--3---x-x------|
E|--3-------0-----------------|

Fig 1:  2:              3:        4:
------  --              --        --

E|--3^- --------------- --------- -----------
B|--3|- --------------- --------- -----------
G|--0|- --14p12-------- -----12-- ------5----
D|--0|- --14p12-12-14-- --12----- ----5------
A|--2|- --------12-14-- --------- --3--------
E|--3|- --------------- --------- --------3--
                          N.H.
Riff 4:
-------
[ Tab from: https://www.guitartabs.cc/tabs/r/richie_sambora/made_in_america_tab_ver_2.html ]
E|-----------------------------------------------------------------|
B|-----------------------------------------------------------------|
G|-----------------------------------------------------------------|
D|---------5-4---------------5-4-----------------------------------|
A|-------3-----------------3------7-7-7-7-7-7-7-7-7-7-7-7-7-7-7-7--|
E|--5--7--------5--3--5--7--------5-5-5-5-5-5-5-5-5-5-5-5-5-5-5-5--|
                                  P.M . . . . . .



Solo:
-----

E|--------------------3-3---3-3------3---------------------------3----3-------------------|
B|--------------------3-3---3-3-6----3-3-3h6p3-------------------3----3-----5-3-----------|
G|--7bró4----------6b----6b-------6b-----------5-3-3-3h5p3----6b---6b---5-3-5-3-----------|
D|---------7br-5-------------------------------------------5-3------------------5---3-5/--|
A|----------------------------------------------------------------------------------------|
E|----------------------------------------------------------------------------------------|

E|----------------------------12-------12----------19br-19b-16-------|
B|----------------------------12-------12----------------------19-16-|
G|----5-5---------7/5---14-14----14-14----16p14h16-------------------|
D|--3-5-5-3---3-5----------------------------------------------------|
A|----------5--------------------------------------------------------|
E|-------------------------------------------------------------------|

E|---------------------------------------------------------------------|
B|-----------16--10b-10b-10b-10b-10p8---10-5-8-------------------------|
G|--18p16h18--------------------------9---------9-12-14-16p14-12-9-12--|
D|---------------------------------------------------------------------|
A|---------------------------------------------------------------------|
E|---------------------------------------------------------------------|

E|---------------------|
B|--x-x----------------|
G|--x-x-12-14-12---12b-|
D|--x-x-12-14-12-------|
A|--x-x----------------|
E|---------------------|