Reggie And The Full Effect - Get Well Soon Chords & Tabs

 

Get Well Soon Chords & Tabs

Reggie And The Full Effect Chords & Tabs

Version: 2 Type: Tab

Get Well Soon Tab

   
Intro
Guitar one only
  X2
e|---------------------------------------------------------------------------|
B|---------------------------------------------------------------------------|
G|---------------------------------------------------------------------------|
D|----16----------16----------16---------------------------------------------|
A|--------18--14------18--14------18--14--13--11--9--------------------------|
E|---------------------------------------------------------------------------|

Intro continued
Guitar one
  X2
e|---------------------------------------------------------------------------|
B|---------------------------------------------------------------------------|
G|---------------------------------------------------------------------------|
D|-16-x3------------16-x3-------------16-x3----------------------------------|
A|-------18-x3-14-x2-------18-x3-14-x2-------18-x3-14-x2---13-x3-11-x39-x2-|
E|---------------------------------------------------------------------------|

Guitar two
  X2
e|---------------------------------------------------------------------------|
B|---------------------------------------------------------------------------|
G|---------------------------------------------------------------------------|
D|--2222222222222222---11-\-----66666666-------------------------------------|
A|--2222222222222222---11--x8---66666666-------------------------------------|
E|--0000000000000000---09-/-----44444444-------------------------------------|

Guitar one
  X2
e|---------------------------------------------------------------------------|
B|---------------------------------------------------------------------------|
G|---------------------------------------------------------------------------|
D|--16-16------------16-16-----------16-16-----------------------------------|
A|---------18-18--14-------18-18--14-------18-18--14--13--11--9--------------|
E|---------------------------------------------------------------------------|

Guitar two
  X2
e|---------------------------------------------------------------------------|
B|---------------------------------------------------------------------------|
G|---------------------------------------------------------------------------|
D|--22-22-22-22-2222----1111-1111-1111-1111-11111111-------------------------|
A|--22-22-22-22-2222----1111-1111-1111-1111-11111111-------------------------|
E|--00-00-00-00-0000----0909-0909-0909-0909-09090909-------------------------|

Verse
Guitar one 
  X4
e|---------------------------------------------------------------------------|
B|---------------------------------------------------------------------------|
G|----16---------------------------------------------------------------------|
D|----16x16----11-----------------------------------------------------------|
A|----14--------11x16-------------------------------------------------------|
E|--------------09-----------------------------------------------------------|

Guitar two
  X4
e|---------------------------------------------------------------------------|
B|---------------------------------------------------------------------------|
G|---------------------------------------------------------------------------|
D|---2-------11--------------------------------------------------------------|
A|---2x16---11--x16---------------------------------------------------------|
E|---0-------09--------------------------------------------------------------|

Chorus
Guitar one
  X2
e|---------------------------------------------------------------------------|
B|---------------------------------------------------------------------------|
G|---------------------------------------------------------------------------|
D|----16----------16----------16---------------------------------------------|
A|--------18--14------18--14------18--14--13--11--9--------------------------|
E|---------------------------------------------------------------------------|

Guitar two
  X2
e|---------------------------------------------------------------------------|
B|---------------------------------------------------------------------------|
G|---------------------------------------------------------------------------|
D|--2222222222222222---11 | ----66666666-------------------------------------|
A|--2222222222222222---11  x8---66666666-------------------------------------|
E|--0000000000000000---09 | ----44444444-------------------------------------|
[ Tab from: https://www.guitartabs.cc/tabs/r/reggie_and_the_full_effect/get_well_soon_tab_ver_2.html ]
Guitar one
  X2
e|---------------------------------------------------------------------------|
B|---------------------------------------------------------------------------|
G|---------------------------------------------------------------------------|
D|--16-16------------16-16-----------16-16-----------------------------------|
A|---------18-18--14-------18-18--14-------18-18--14--13--11--9--------------|
E|---------------------------------------------------------------------------|

Guitar two
  X2
e|---------------------------------------------------------------------------|
B|---------------------------------------------------------------------------|
G|---------------------------------------------------------------------------|
D|--22-22-22-22-2222----1111-1111-1111-1111-11111111-------------------------|
A|--22-22-22-22-2222----1111-1111-1111-1111-11111111-------------------------|
E|--00-00-00-00-0000----0909-0909-0909-0909-09090909-------------------------|

Repeat Verse
Repeat Chorus

Bridge
Guitar one and two
e|---------------------------------------------------------------------------|
B|---------------------------------------------------------------------------|
G|---------------------------------------------------------------------------|
D|--2-----4-----6-----4-----6------8-----\-----then--2------4----------------|
A|--2-x8--4-x8--6-x8--4-x8--6-x16--8-x16-x2---------2-x16--4x16-----------|
E|--0-----2-----4-----2-----4------6-----/-----------0------2----------------|

Last Chorus
Guitar one
  X2
e|---------------------------------------------------------------------------|
B|---------------------------------------------------------------------------|
G|---------------------------------------------------------------------------|
D|--16-16------------16-16-----------16-16-----------------------------------|
A|---------18-18--14-------18-18--14-------18-18--14--13--11--9--------------|
E|---------------------------------------------------------------------------|

Guitar two
  X2
e|---------------------------------------------------------------------------|
B|---------------------------------------------------------------------------|
G|---------------------------------------------------------------------------|
D|--22-22-22-22-2222----1111-1111-1111-1111-11111111-------------------------|
A|--22-22-22-22-2222----1111-1111-1111-1111-11111111-------------------------|
E|--00-00-00-00-0000----0909-0909-0909-0909-09090909-------------------------|

Guitar one
  X2
e|---------------------------------------------------------------------------|
B|---------------------------------------------------------------------------|
G|---------------------------------------------------------------------------|
D|-16-x3------------16-x3-------------16-x3----------------------------------|
A|-------18-x3-14-x2-------18-x3-14-x2-------18-x3-14-x2---13-x3-11-x39-x2-|
E|---------------------------------------------------------------------------|

Guitar two
  X2
e|---------------------------------------------------------------------------|
B|---------------------------------------------------------------------------|
G|---------------------------------------------------------------------------|
D|--2222222222222222---11-\-----66666666-------------------------------------|
A|--2222222222222222---11--x8---66666666-------------------------------------|
E|--0000000000000000---09-/-----44444444-------------------------------------|

Outro
Guitar one
e|---------------------------------------------------------------------------|
B|---------------------------------------------------------------------------|
G|---------------------------------------------------------------------------|
D|-16-------16-------16----------------16---------16-18----------------------|
A|----18-14----18-14----18-14-13-11-9-----18-14---------18-14----------------|
E|---------------------------------------------------------------------------|

Guitar two
e|---------------------------------------------------------------------------|
B|---------------------------------------------------------------------------|
G|---------------------------------------------------------------------------|
D|--2~------11~-----6~------2~-----------------------------------------------|
A|--2~------11~-----6~------2~-----------------------------------------------|
E|--0~------11~-----4~------0~-----------------------------------------------|

| /  slide up
| \  slide down
| h  hammer-on
| p  pull-off
| ~  vibrato
| +  harmonic
| x  Mute note
===============================================================================