Red Warszawa - Burn Er Dumme Og Grimme Chords & Tabs

 

Burn Er Dumme Og Grimme Chords & Tabs

Red Warszawa Chords & Tabs

Version: 1 Type: Bass Tab

Burn Er Dumme Og Grimme Bass Tab

   
Red Warszawa - BÝrn er dumme og grimme
Tabbed by Daniel Jallov

Bass

Intro, verse 1 & 2

     Q    E  E  E  E  Q     Q    E  E  E  E  Q     
G||----------------------|------------------------|
D||----------------------|------------------------|
A||----------------3-----|----------------3-------|
E||--0----r--0--1-----1--|--0----r--0--1-----1----|


                                PM PM PM PM PM  
  Q    E  E  E  E  Q    Q     E  E  E  E  E  E   
---------------------------|--------------------||
---------------------------|--------------------||
----------------3----------|--------------------||
--0-------0--1-----1----0--|--r--0--0--0--0--0--||


Chorus
[ Tab from: https://www.guitartabs.cc/tabs/r/red_warszawa/burn_er_dumme_og_grimme_btab.html ]
                       PM PM PM PM PM          
    Q    E  E  Q    Q     E  E  E  E  E  E  Q      x3
||---------------------|-------------------------||
||0--------------------|------------------------0||
||0--------------------|--------------------3---0||
||--3----r--3--2----1--|--0--0--0--0--0--1-------||


                       PM PM PM PM PM          
  Q    E  E  Q    Q     E  E  E  E  E  Q.       
---------------------|------------------------||
---------------------|------------------------||
---------------------|------------------------||
--3----r--3--2----1--|--0--0--0--0--0--r------||


Guitar Solo, Verse 3

     Q    E  E  E  E  Q     Q    E  E  E  E  Q     
||----------------------|------------------------||
||----------------------|------------------------||
||----------------3-----|----------------3-------||
||--0----r--0--1-----1--|--0----r--0--1-----1----||



Song structure:
Intro
Verse 1 x3
Chorus
Verse 2 x2
Chorus 
Solo x8
Verse 3 x6
Chorus


Duration Legend
---------------
W - whole
H - half
Q - quarter
E - 8th
S - 16th
T - 32nd
X - 64th
. - note dotted
|-n-|  - n-tuplets
r - Rest