Red Hot Chili Peppers - Torture Me Chords & Tabs

 

Torture Me Chords & Tabs

Red Hot Chili Peppers Chords & Tabs

Version: 2 Type: Bass Tab

Torture Me Bass Tab

Band:  Red Hot Chili Peppers
Title: Torture Me
Album: Stadium Arcadium
Tabbed by: Jon Turner jrt5024@gmail.com

The horns make this song sound really ska. This bass part is incredibly fun. 

E-mail comments, suggestions, error-mistakes, etc. to
jrt5024@gmail.com. Thx! :D

-------------------------------------------------

Verse 1
(riff 1)
***
G|------------------|-------------------|
D|---3-3---3-3---1h3|---3-3---3-3---1h3s|
A|1-1---1-1---1-----|1-1---1-1---1------|
E|------------------|-------------------|

G|------------------|------------------|
D|4--4--4--4--4--4s6|4--4--4--4--64----|
A|-----4-----4------|-----4-----4--4---|
E|------------------|------------------|

G|------------------|-------------------|
D|---3-3---3-3---1h3|---3-3---3-3---1h3s|
A|1-1---1-1---1-----|1-1---1-1---1------|
E|------------------|-------------------|
***

G|------------------|------------------|
D|4--4--4--4--4--4s6|4--4--4-6-4-3h4p3-|
A|-----4-----4------|-----4------------|
E|------------------|------------------|

Play Riff 1 1x

G|------------------|------------------|
D|4--4--4--4--4--4s6|4--4--4-4----4----|
A|-----4-----4------|-----4----4-4-4---|
E|------------------|------------------|

Play Riff 1 1x

(riff 2)
G|------------------|-----------------|
D|4--4--4--4--4--4s6|4--4--4-6-4-3h4--|
A|-----4-----4------|-----4---------4-|
E|------------------|-----------------|

Play Riff 1 1x
Play Riff 2 1x

Chorus 1  :59
G|----------------|----1013--10--13|
D|----1515--15--15|11----------11--|
A|13----------13--|----------------|
E|----------------|----------------|

G|11----11----1110|----------------|
D|----11----11----|13----13----1315|
A|----------------|----13----13----|
E|----------------|----------------|

G|----------------|----1013--10--13|
D|----1515--15--15|11----------11--|
A|13----------13--|----------------|
E|----------------|----------------|

G|11----11----1110|----------------|
D|----11----11----|13----13--------|
A|----------------|----13----------|
E|----------------|----------------|

Verse 2  1:14
Play Riff 1 1x
Play Riff 2 1x
Play Riff 1 1x
Play Riff 2 1x

Chorus 2  1:43
(repeat Chorus 1)

Interlude - 1:58
G|------10--------|10------1110----|
D|----11----------|------------11--|
A|----------------|----------------|
E|9---------------|------9-------9s|

G|------11--------|1110------------|
D|----13----------|----------------|
A|----------------|------16s-1311--|
E|11------------11|----------------|

G|------10--------|------10s11s10----|
D|----11----------|--------------11--|
A|----------------|------------------|
E|9---------------|--9-------------9s|
[ Tab from: https://www.guitartabs.cc/tabs/r/red_hot_chili_peppers/torture_me_btab_ver_2.html ]
G|------11------11s13s11-10s11s10------------------|
D|----13----------|---------------11s13s11---------|
A|----------------|------------------------11s13s8-|
E|11--------------|--------------------------------|

G|------10--------|--------10------|
D|----11----------|------11--11----|
A|----------------|----11------11--|
E|9---------------|--9-----------9s|

G|------11--------|1513--11--------|
D|----13----------|----------1513--|
A|----------------|----------------|
E|11------------11|----11--11----11|

G|------10--------|------10s11s10----|
D|----11----------|--------------11--|
A|----------------|------------------|
E|9---------------|--9-------------9s|

G|------11--------|----15--13--\---|
D|----13----------|----------------|
A|----------------|----------------|
E|11--------------|13s14-13--13\---|

G|------10--------|10----10--------|
D|----11----------|----11----------|
A|----------------|----------------|
E|9---------------|--------------9s|

G|------11--------|11----11--------|
D|----13----------|----13----------|
A|----------------|----------------|
E|11--------------|----------------|

Verse 3  2:37
Play Riff 1 1x
Play Riff 2 1x

G|------------------|-------------------|
D|---3-3---3-3---1h3|---3-3---3-3---1h3s|
A|1-1---1-1---1-----|1-1---1-1---1------|
E|------------------|-------------------|

G|------------------|------------------|
D|4--4--4--4--4--4s6|4--4--4-6-4-3-----|
A|-----4-----4------|-----4--------4---|
E|------------------|------------------|

G|------------------|-------------------|
D|---3-3---3-3---1h3|---3-3---3-3---1h3s|
A|1-1---1-1---1-----|1-1---1-1---1------|
E|------------------|-------------------|

Play Riff 2 1x

Chorus 3  3:06 

G|----------------|----1013--10--13|
D|----15----15--15|11----------11--|
A|13----13----13--|----------------|
E|----------------|----------------|

G|11----11----1110|----------------|
D|----11----11----|13----13----1315|
A|----------------|----13----13----|
E|----------------|----------------|

G|----------------|----1013--10--13|
D|----15----15--15|11----------11--|
A|13----13----13--|----------------|
E|----------------|----------------|

G|11----11----1110|----------------|
D|----11----11----|13----13----1315|
A|----------------|----13----13----|
E|----------------|----------------|

G|----------------|----101013--10--13|
D|----15----15--15|1111----------11--|
A|13----13----13--|------------------|
E|----------------|------------------|

G|11----11----1110|------------------|
D|----11----11----|13----1313--131315|
A|----------------|----13----13------|
E|----------------|------------------|

G|----------------|----1013--10--13|
D|----15----15--15|11----------11--|
A|13----13----13--|----------------|
E|----------------|----------------|


G|11----11----1110|----------------|
D|----11----11----|13----13--------|
A|----------------|----13----------|
E|----------------|----------------|

G|----------------|
D|----------------|
A|13--------------|
E|----------------|