Red Hot Chili Peppers - Savior Chords & Tabs

 

Savior Chords & Tabs

Red Hot Chili Peppers Chords & Tabs

Version: 3 Type: Bass Tab

Savior Bass Tab

   
-------------------------------------------------------------------------------
Red Hot Chili Peppers - Savior
-------------------------------------------------------------------------------

Tabbed By: Gavin Murray

Tuning: normal (EADG)


The rhythm of this is off but tried to get it gud but this is what I think the song goes like.


Intro
G|---------------------------------|---------------------------------|
D|---------------------------------|---------------------------------|
A|--5--5--5555--55--0-33333--------|--5--5--5555--55--0-33335--------|
E|---------------------------33333-|---------------------------33333-|

Verse 1
G|---------------------------------|---------------------------------|
D|-------3--3----------------------|---------------------------------|
A|--5--5-------5-0--3-3333---------|--5--5--5555--55--0-33333--------|
E|-------------------------33333---|---------------------------33333-|

G|---------------------------------|---------------------------------|
D|-------3--3----------------------|-------2-3-2---------------------|
A|--5--5-------5-0--3-3333---------|--5-----------5-0--3-3333--------|
E|-------------------------33333---|--------------------------33333--|

Bridge
G|-----13-----11-------9-----------|-----11--------------13--9-------|
D|---------------------------9-----|---------------------------------|
A|---------------------------------|---------------------------------|
E|-0~~~~~~~~~~~~~~~~~~~~~~~~~~~~~~~|-0~~~~~~~~~~~~~~~~~~~~~~~~~~~~~~~|

Verse 1 cont.
G|---------------------------------|---------------------------------|
D|---------------------------------|-------3--3----------------------|
A|--5--5--5555--55--0-33333--------|--5--5-------5-0--3-3335-------3-|
E|---------------------------33333-|-------------------------33333---|

G|---------------------------------|---------------------------------|
D|-------2-3-2---------------------|---------------------------------|
A|--5-----------5-0--3-3333--------|--5--5--5555--55--0-33333--------|
E|---------------------------33333-|---------------------------33333-|

Repeat the bridge

Chorus
G|----19------19-----19-----19---19|----19------19-----19---19---------------|
D|---------------------------------|-----------------------------------------|
A|-17---17-15---15-----------------|-17---17-15---15-------------------------|
E|----------------15---1515---15---|----------------15---15----18--18--------|

				 |----19------19-----19---19---------------|
                                   |-----------------------------------------|
				 |-17---17-15---15-------------------------|
				 |----------------15---15-----18-18-18-----|

				 |----19------19-----19---19---------------|
				 |-----------------------------------------|
				 |-17---17-15---15-------------------------|
				 |----------------15---15----x-18-18-------|

				 |----19------19-----19---19---------------|
				 |-----------------------------------------|
				 |-17---17-15---15-------------------------|
				 |----------------15---15---15/18-1818-----|

				 |----19------19---------------------------|
				 |-----------------------------------------|
				 |-17---17-15---15-------------------------|
				 |----------------15-----------------------|

Verse 2
G|---------------------------------|--------------------------------|
D|---------------------------------|-------3--3---------------------|
A|--5--5--5555--555--33333--------|--5--5-------5-0--3-3333--------|
E|---------------------------33333-|--------------------------33333-|
[ Tab from: https://www.guitartabs.cc/tabs/r/red_hot_chili_peppers/savior_btab_ver_3.html ]
G|---------------------------------|--------------------------------|
D|--------5-3-2--------------------|--------------------------------|
A|--5--5--------5-3-0-33333--------|--5--5-------5-0--3-3333--------|
E|---------------------------33333-|--------------------------33333-|

Repeat the Bridge

Verse 2 Cont.
G|---------------------------------|--------------------------------|
D|---------------------------------|-------3--3---------------------|
A|--5--5--5555--55--0-33333--------|--5--5-------5-0--3-3333--------|
E|---------------------------33333-|--------------------------33333-|

G|---------------------------------|--------------------------------|
D|------2-3-5-3-2------------------|--------------------------------|
A|--5--------------0-33333---------|--5--5--5555--55--0-33333-------|
E|--------------------------33333--|--------------------------33333-|

Repeat the Bridge

Chorus
G|----19------19-----19-----19---19|----19------19-----19---19---------------|
D|---------------------------------|-----------------------------------------|
A|-17---17-15---15-----------------|-17---17-15---15-------------------------|
E|----------------15---1515---15---|----------------15---15----18-18-18-18---|

				 |----19------19-----19---19---------------|
				 |-----------------------------------------|
				 |-17---17-15---15-------------------------|
				 |----------------15---15----18---18-------|

				 |----19------19-----19---19---------------|
				 |-----------------------------------------|
				 |-17---17-15---15-------------------------|
				 |----------------15---15---15/18\15-15\12-|

				 |----19------19-----19---19---------------|
				 |-----------------------------------------|
				 |-17---17-15---15-------------------------|
				 |----------------15---15---15/18-1818-----|

				 |----19------19---------------------------|
				 |-----------------------------------------|
				 |-17---17-15---15-------------------------|
				 |----------------15-----------------------|

Outro
G|---------------------------------|---------------------------------|
D|---------------------------------|---------------------------------|
A|--5--5--5555--55--0-33333--------|--5--5--5555--55--0-33333--------|
E|---------------------------33333-|---------------------------33333-|

G|---------------------------------|----------------------------------|
D|-------3--3----------------------|------2/75-3-532-----------------|
A|--5--5-------5-0--3-3333---------|--5-5--------------33335--------3-|
E|--------------------------33333--|--------------------------33335---|

G|---------------------------------|----------------------------------|
D|---------------------------------|-------3--3---------5-------------|
A|--5--5--5555--55--0-33333--------|--5--5------5-0--3-----3-5--------|
E|---------------------------33333-|---------------------------33333--|

G|---------------------------------|----------------------------------|
D|---------------------------------|-------2-3-2----------------------|
A|--5--5--5555--55--0-33434--------|--5-----------5-0--3-3333---------|
E|---------------------------33333-|---------------------------33333--|

G|---------------------------------|----------------------------------|
D|-------235-32h3p2---------------|-----------------------5-----5----|
A|--5-5--------------5-3333--------|--5--5--5555--55--0-33---3-------5|
E|---------------------------33333-|---------------------------3---5--|



| /  slide up
| \  slide down
| h  hammer-on
| p  pull-off
| ~  vibrato
| x  Mute note
===============================================================================