Red Hot Chili Peppers - Mercy Mercy Chords & Tabs

 

Mercy Mercy Chords & Tabs

Red Hot Chili Peppers Chords & Tabs

Version: 1 Type: Bass Tab

Mercy Mercy Bass Tab

Mercy Mercy is the song, Flea is the bassist, Stadium Arcadium is the album it would be 
but it is a b-side. Nice funky riff. The fills require a little finesse, but once you 
the hang of it, itís one fun song to play.

Intro/Verse

G--------------------------------------------------------------------------|
D--------------------------x0h1-------------------------3x0h1--------------|
A--3-3-3-------------------------3-3-3-------------------------------------|
E-----------3-3-3--1-1-1----------------3-3-3-1-1-1------------------------|

Chorus- 3 times
G----------------------------------------|
D----------------------------------------|
A--6-6-6-6--------8----------------------|
E-------------6-6----8-------------------|
[ Tab from: https://www.guitartabs.cc/tabs/r/red_hot_chili_peppers/mercy_mercy_btab.html ]
Then
G-----------------------------------------|
D-----------------------------------------|
A--6-6-6-6--------------------------------|
E-------------6-6---1----8----------------|

Guitar Solo
G--------------------------------------------------------------------------|
D--------------------------x0h1-------------------------3x0h1--------------|
A--3-3-3-------------------------3-3-3-------------------------------------|
E-----------3-3-3--1-1-1----------------3-3-3-1-1-1------------------------|


Fill/Riff Goes like this
G------------------------------------3----5-3---3------------------------------|
D----------------------------1-3-5----5-------5---5-3-5-3----3-----------------|
A--3-3-3-----------------------------------------------------6------6--3-------|
E-----------3-3-3--1-1-1-------------------------------------------------------|