Red Hot Chili Peppers - Ill Be Your Domino Chords & Tabs

 

Ill Be Your Domino Chords & Tabs

Red Hot Chili Peppers Chords & Tabs

Version: 1 Type: Bass Tab

Ill Be Your Domino Bass Tab

Song: Iíll Be Your Domino
Album: Stadium Arcadium(B-side)
Artist: Red Hot Chili Peppers

Yeah this is a funky little slap song, listen to the song for the rhythm. I didnít put 
all the muted notes because I think that kind goes along with the rhythm, and once you 
out the rhythm youíll figure out the muted notes.


Intro/Verse -3 times

G-----5---5-------5p3------3-----------------------------------------------|
D-------------------------5----------2--3-------3-3-----3p1-----1----------|
A--3---------x-x ----------------x-----------------------------3-----1h3---|
E-------------------------------------------x-x--------x-------------------|

Then Comes this fill

G-----5---5-------5p3------3-------------------------------------3----------|
D-------------------------5----------2--3-------3-3-----3p1----------1------|
A--3---------x-x ----------------x-----------------------------3------------|
E-------------------------------------------x-x--------x--------------------|


Chorus
[ Tab from: https://www.guitartabs.cc/tabs/r/red_hot_chili_peppers/ill_be_your_domino_btab.html ]
G-----5---5-------5p3------3------------------------------------------------|
D-------------------------5----------2--3-------3-3-----3p1-----1-----------|
A--3---------x-x ----------------x-----------------------------3-----1h3----|
E-------------------------------------------x-x--------x--------------------|

Interlude 1:30 and 2:32 and 3:34

G---------------------------------------------------|
D----3-3------5-5------6-6-------5-5----------------|
A---------------------------------------------------|
E--1------1-3------3-4-------4-3-------3-1----------|

Then at the end of the interlude play this

G---------------------------------------------------|
D----3-3------5-5------6-6-------8-----9------------|
A---------------------------------------------------|
E--1------1-3------3-4-------4-6-----7--------------|


Guitar Solo

G--5-5-5-5-5-5-5-------------------------------------------|
D----------------------------------------------------------|
A----------------------------------------------------------|
E----------------------------------------------------------|

G-----5---5-------5p3------3-----------------------------------------------|
D-------------------------5----------2--3-------3-3-----3p1-----1----------|
A--3---------x-x ----------------x-----------------------------3-----1h3---|
E-------------------------------------------x-x--------x-------------------|