Red Hot Chili Peppers - Dani California Chords & Tabs

 

Dani California Chords & Tabs

Red Hot Chili Peppers Chords & Tabs

Version: 17 Type: Tab

Dani California Tab

   
Legend
p= Pull-off
h= Hammer-on


E|-------------------------------------------|
B|-----6-------------------------------------|
G|---5---7-----------------------------------|
D|-7--------5p35p3-5p3-5p3------------------|
A|--------------------------5-----------/5---|
E|----------------------------/5--3--1-------|

E|----------------------------------------------|
B|-----6-----------------------------13-15------|
G|---5---7--5p2-5p2-5p2-5p2-5/7---14------------|
D|-7--------------------------------------------|
A|----------------------------------------------|
E|----------------------------------------------|

E|-------------------------------------------|
B|-----6-------------------------------------|
G|---5---7-----------------------------------|
D|-7--------5p35p3-5p3-5p3------------------|
A|--------------------------5-----------/5---|
E|----------------------------/5--3--1-------|

E|----------------------------------------------|
B|-----6-----------------------------13-15------|
G|---5---7--5p2-5p2-5p2-5p2-5/7---14------------|
D|-7--------------------------------------------|
A|----------------------------------------------|
E|----------------------------------------------|
[ Tab from: https://www.guitartabs.cc/tabs/r/red_hot_chili_peppers/dani_california_tab_ver_17.html ]
E|---------------------------------------------------------------|
B|------13-15-13----15-13----15-13----15-13----15-13----15-13----|
G|---14----------14-------14-------14-------14-------14-------14-|
D|---------------------------------------------------------------|
A|---------------------------------------------------------------|
E|---------------------------------------------------------------|

E|----------------------------------------------|
B|-----6----------------------------------------|
G|---5---7---2h5p2-5p2-5p2-------------5--------|
D|-7-----------------------5p3---3-5/7---5\3----|
A|-----------------------------5-------------5--|
E|----------------------------------------------|

E|----------------------------------------------|
B|-----6------------------------------13-b15----|
G|---5---7---5p2-5p2-5p2-5p2-5/7---14-----------|
D|-7--------------------------------------------|
A|----------------------------------------------|
E|----------------------------------------------|

E|-------------------------------------------|
B|-----6-------------------------------------|
G|---5---7-----------------------------------|
D|-7--------5p35p3-5p3-5p3------------------|
A|--------------------------5-----------/5---|
E|-----------------------------/5--3--1------|

E|-----------|
B|-----------|
G|---10h12p10|
D|b12--------|    9 or 10x listen to it closely
A|-----------|
E|-----------|

E|-15-15-15-15-15-15-15|
B|---------------------|
G|---------------------| 
D|---------------------| 
A|---------------------|
E|---------------------|

E|------13-------------------------------------------|
B|-13h15--15-13-----10h12p10----10h12p10-------------|
G|---------------b12---------b12---------b12-12p10---|
D|-------------------------------------------------12|
A|---------------------------------------------------|          
E|---------------------------------------------------|
he wiggles the last 12 up and down at the end four times, listen for it carefully.