Red Hot Chili Peppers - Brothers Cup Chords & Tabs

 

Brothers Cup Chords & Tabs

Red Hot Chili Peppers Chords & Tabs

Version: 2 Type: Bass Tab

Brothers Cup Bass Tab

Song: Brothers Cup
Artist: Red Hot Chili Peppers


tabbed by Francy [ITA]
My name is Francesco Giampiccolo, if you have any question ask me... My e-mail address
francesco.giampiccolo@virgilio.it

This song is very quickly... Good luck!
[ Tab from: https://www.guitartabs.cc/tabs/r/red_hot_chili_peppers/brothers_cup_btab_ver_2.html ]
Verse
G:------------------|---------33---|-----------------------------------|
D:------------------|------------5-|----------------353-653-----------|
A:----53-2-33-0--0-|--5-3-2-------|--53-2-33-0-----------------------|
D:------------------|--------------|-----------------------------------|

Chorus
G:---------------------------------------------------------------------|
D:---------------------------------------------------------------------|
A:--5--3--1-----------5--3--1--33-1------------------------------------|
D:-----------5-3-5-----------------------------------------------------|x2