Rebelution - Moonlight Acoustic Chords & Tabs

 

Moonlight Acoustic Chords & Tabs

Rebelution Chords & Tabs

Version: 1 Type: Tab

Moonlight Acoustic Tab

Moonlight Acoustic
Album: Bright Side Of Life
Performed by Eric Rachmony at MoBoogie Loft
http://www.youtube.com/watch?v=PJoqUys5Hn0

Capo 6th fret
Standard Tuning
Intro:
e|-------------0------------------------------------------|
B|-------0------------3-2--------0-------------0----------|
G|-----2---2--------2-----2----2---2---2-----2---2---2----|
D|---2-------2----0------------------2-------------2------|  X2
A|-0------------------------------------------------------|
E|---------------------------2-------------2--------------|

e|-----0--------------------------------------------------|
B|-------32-2-----0h2p0-------2p0-------0-----------------|
G|---2--------2---------2---2-----2---2---2---2-----------|
D|----------0---0---------------------------2-------------|  X4
A|-0------------------------------------------------------|
E|------------------------2---------2---------------------|

Pre- Chorus: Chords (listen to song for pattern)       X2
e|-0-----0-----0-----0-----0-------|
B|-0-----3-----0-----3-----0-------|
G|-2-----2-----2-----2-----2-------|
D|-2-----0-----2-----0-----2-------|
A|-0-----------0-----------0-------|
E|-0-----------2-----------0-------|

e|---------------------------------------------2\4--0-0------------|
B|-------0------------0------0----------0-----------3-0-------0----|
G|-----1---1--------2---2---2--2------1---1----2\4--2-2-----1---1--|
D|---2-------2----2-------2---------2-------2-------0-2----2-------|
A|-4--------------------------------------------------0--4---------|
E|--------------2-----------------0-------------------0------------|

e|-----------------------|
B|-------0----------0----|
G|-----2---2------2---2--|
D|---2----------2--------|   X2
A|-----------------------|
E|-2----------2----------|


[ Tab from: https://www.guitartabs.cc/tabs/r/rebelution/moonlight_acoustic_tab.html ]
Chorus:
e|-------------0------------------------------------------|
B|-------0------------3-2--------0-------------0----------|
G|-----2---2--------2-----2----2---2---2-----2---2---2----|
D|---2-------2----0------------------2-------------2------|  X2
A|-0------------------------------------------------------|
E|---------------------------2-------------2--------------|
e|-0----0----0----|
B|-0----3----0----|
G|-2----2----2----|
D|-2----0----2----|   X4
A|-0---------0----|
E|-0---------2----|

Bridge: 
e|-0--------------0---------------0-------------------------------|
B|----3---2--0-------3--2--0--------3------3-2-----2-0-----0------|
G|---2-2---2--2-----2-2--2--2----2---2-2------2-2-----2-2---2-----|
D|-0----0---0--0--0----0--0--0--2-----2--------2-------2-----2----|  X2
A|-----------------------------0---------0--------0-------0-------|
E|----------------------------------------------------------------|

e|-2-------5------------------|
B|-3-------7------------------|
G|-2-------7-7-6--------------|
D|-4-------7----7------7------|   X4
A|-2-2-4-5-5-----7-5-4--------|
E|----------------------------|

Outro:
e|-------0-----------------------------------0---------------------------|
B|----0--------3-2-----0-------2p0-------0-------3-2-0---0------0--------|
G|---2-2------2---2---2-2-2---2---2-2---2-2-----2-----2-2-2-2--2-2-2-----|
D|--2---2----0-----------2---------2---2---2---0-----------2------0------| 
A|-0----------------------------------0----------------------------------|
E|------------------2-------2--------------------------2------2----------|
e|-------------0------------------------------------------|    --0--|
B|-------0------------3-2--------0-------------0----------|    --0--|
G|-----2---2--------2-----2----2---2---2-----2---2---2----|    --2--|
D|---2-------2----0------------------2-------------2------|  X2-2--|
A|-0------------------------------------------------------|    --0--|
E|---------------------------2-------------2--------------|    --0--|