Rasmus - Liquid Chords & Tabs

 

Liquid Chords & Tabs

Rasmus Chords & Tabs

Version: 1 Type: Tab

Liquid Tab

TAB for:        guitar
Title:          Liquid Ė violin parts
Artist:         The Rasmus
Album/Single:   Hellofatester/Hellofacollection/Liquid
Tabbed by:      Saki Sayuri Kansaki


Here are the violin parts of Liquid! I think itís 
also nice to play with an guitar, so Iíve figured 
it out and wrote into Tab. 

Signs: 
~    =   let note ring
()   =   ghost note


Intro: (0:00) 
Non violin part


Verse:(0:33)
E|--------------------|
H|-0~-----------------|
G|-----2~--0----------|
D|----------4~--2~~~--|
A|--------------------|
E|--------------------|

(0:44)
E|--------------------|
H|-3~--1~--0----------|
G|----------2~--0~~~--|
D|--------------------|
A|--------------------|
E|--------------------|


Bridge: (0:50)
E|----------|----------|
H|----------|----------|
G|----------|-----0-1--|
D|----------|-0-2------|
A|---0-2-4--|----------|
E|-3--------|----------|


Chorus: (0:55) 
This part I canít figure out right, so please sent it to me 
if you have it!
E|-?-?-?-?-?-?-?-?-?-?-?-?-?-|
H|-?-?-?-?-?-?-?-?-?-?-?-?-?-|
G|-?-?-?-?-?-?-?-?-?-?-?-?-?-|
D|-?-?-?-?-?-?-?-?-?-?-?-?-?-|
A|-?-?-?-?-?-?-?-?-?-?-?-?-?-|
E|-?-?-?-?-?-?-?-?-?-?-?-?-?-|
  Itís no more a secretÖ 

E|-5~~~--7~~~--7-7--|-8-8-8-85~~~--|-8-8-8-85~~~--|
H|------------------|--------------|--------------|
G|------------------|--------------|--------------|
D|------------------|--------------|--------------|
A|------------------|--------------|--------------|
E|------------------|--------------|--------------|
  If itís the loveÖ  Show me anÖ    Show me anÖ


Verse: (1:24) 
I canít figure out right what the violins play exactly, 
but I think you can play it like thatÖ 
E|-------------------------|-------------------------|
H|-------------0~~~--0~~~--|-------------0~~~--1~~~--|
G|-------2~~~--------------|-------2~~~--------------|
D|-2~~~--------------------|-2~~~--------------------| 	2x
A|-------------------------|-------------------------|
E|-------------------------|-------------------------|


Bridge (2:08)
Chorus (2:14)

[ Tab from: https://www.guitartabs.cc/tabs/r/rasmus/liquid_tab.html ]
Solo: (2:40) 
Violin 1
E|---0-1-0--------|----------------|---0-1-3-1-0-0~-|
H|-3-------1-3~~~-|-(3)~~~~~~~~~~~-|-3--------------|
G|----------------|----------------|----------------|
D|----------------|----------------|----------------|
A|----------------|----------------|----------------|
E|----------------|----------------|----------------|

Violin 2
E|----------------|-3-5-7-5-3-3~~~-|-(3)~~~~~~~~~~~-|
H|----------------|----------------|----------------|
G|----------------|----------------|----------------|
D|----------------|----------------|----------------|
A|----------------|----------------|----------------|
E|----------------|----------------|----------------|


Violin 1
E|-3~-1~-0~--------------------------|-3-5-7-3~--|
H|------------3~~~--1~~~------0~~~---|-----------|
G|-----------------------------------|-----------|
D|-----------------------------------|-----------|
A|-----------------------------------|-----------|
E|-----------------------------------|-----------|

Violin 2
E|---------0-1---1-3-5-7-8-10-7-5-3~-|-(3)~~~~~~-|
H|-0~~~--3-----3---------------------|-----------|
G|-----------------------------------|-----------|
D|-----------------------------------|-----------|
A|-----------------------------------|-----------|
E|-----------------------------------|-----------|


Violin 1
I canít figure out what violin 1 is playing here. It sounds 
like it would play the same like violine 2. But Iím not sure 
about that. If you can figure it out, please sent it to me!

Violin 2
E|-3-0-----------|-----------------|
H|-----0------0~-|-0---------------|
G|-------0~-2----|---0-------------|
D|---------------|-----0------0----|
A|---------------|-------2~-3---2--|
E|---------------|-----------------|


Bridge (3:02)
Chorus (3:08) 2x


End with: (4:09)
E|-8~~~--5~~~--|
H|-------------|
G|-------------|
D|-------------|
A|-------------|
E|-------------|


Thatís it. Like said, Iíd really appreciate it 
if somebody could help me with the missing parts! ^^ 
Questions, corrections, suggestions to: nadine.reinartz@web.de