Rasmus - Funeral Song Chords & Tabs

 

Funeral Song Chords & Tabs

Rasmus Chords & Tabs

Version: 1 Type: Tab

Funeral Song Tab

   
Funeral Song
The Rasmus
Tabbed by: Mariano Arnaiz
Anything to: marianoarnaiz@hotmail.com

Intro
E------------------------------------------------|
B-8------------------------------------------8vr-|
G----8-1010/12vr--10vr--10-8-7-7h8r--8-7-5------| x2
D------------------------------------------------|
A------------------------------------------------|
E------------------------------------------------|

E-------------|
B---------20r-|
G-20-19-17----|
D-------------|
A-------------|
E-------------|

Verse
G#               G
   I dumped you again
C#             C
   I don't understand
G#               G
   It's happened before
C#             C
   Can't take it no more

G#               D#
   These foolish games
C#                   C
   Always end up in confusion
G#               C#
   I'll take you back
           G
   Just to leave you once again

Chorus
Cm              G#
   I died in my dreams
                           D#
   What's that supposed to mean?
                   Bb   G
   Got lost in the fi - re
Cm              G#
   I died in my dreams
                         D#
   Reaching out for your hand
            Bb  G
   My fatal desire
[ Tab from: https://www.guitartabs.cc/tabs/r/rasmus/funeral_song_tab.html ]
E------------------------------------------------|
B-8------------------------------------------8vr-|
G----8-1010/12vr--10vr--10-8-7-7h8r--8-7-5------| x2
D------------------------------------------------|
A------------------------------------------------|
E------------------------------------------------|


E-------------|
B---------20r-|
G-20-19-17----|
D-------------|
A-------------|
E-------------|

Verse
G#               G
I've failed you again
C#             C
Cause I let you stay
G#               G
I used to pretend
C#             C
That I felt okay

G#               D#
Just one big lie
C#                   C
Such a perfect illusion
G#               C#
I made you mine
           G
Just to hurt you once again

Chorus
Cm              G#
   I died in my dreams
                           D#
   What's that supposed to mean?
                   Bb   G
   Got lost in the fi - re
Cm              G#
   I died in my dreams
                         D#
   Reaching out for your hand
            Bb  G
   My fatal desire


E------------------------------------------------|
B-8------------------------------------------8vr-|
G----8-1010/12vr--10vr--10-8-7-7h8r--8-7-5------| x2
D------------------------------------------------|
A------------------------------------------------|
E------------------------------------------------|

E-------------|
B---------20r-|
G-20-19-17----|
D-------------|
A-------------|
E-------------|