Rancid - Maxwell Murder Chords & Tabs

 

Maxwell Murder Chords & Tabs

Rancid Chords & Tabs

Version: 12 Type: Bass Tab

Maxwell Murder Bass Tab

(0.59)  Solo
G-----------------------------------------------------------|
D-10-7--10-7--10-7--10-7---------------7--------------------|
A------------------------11-10-8-10-11---10-8-7-------------|
E-----------------------------------------------11-10-8-6-5-|
[ Tab from: https://www.guitartabs.cc/tabs/r/rancid/maxwell_murder_btab_ver_12.html ]
G-------------5-6-7-6-5-4-------------------------------------|
D-------5-6-7-------------7-6-5-4-5-3-------3-----------------|
A-5-5-8-------------------------------5-3-5---5-3-------3-4-5-|
E-------------------------------------------------5---5-------|

G------------------------------15---------15-------|
D-12-12-12-11-10---15-15-15-17---17-15-17---17-12--|
A--------------------------------------------------|
E--------------------------------------------------|

G-------------19-18-17-16-15-14-12-10-9-8-7----------------------|
D-11-11-12-12-------------------------------5-5-6-6--------------|
A----------------------------------------------------------------|
E----------------------------------------------------------------|