Rammstein - Hilf Mir Chords & Tabs

 

Hilf Mir Chords & Tabs

Rammstein Chords & Tabs

Version: 3 Type: Tab

Hilf Mir Tab

   
Intro  Part I    (0:00)
e|----------------------------------------------------------------|
B|----------------------------------------------------------------|
G|---1-1-1-1-1-1-1-1-1-1-1-1-1-1-1-1------------------------------|
D|----------------------------------222222------5558888-----------|
A|----------------------------------222222------3336666-----------|
E|----------------------------------000000------3336666-----------|


Intro  Part II  x3  (0:09)   
e|---------------------|---------------------------|
B|---------------------|---------------------------|
G|---------------------|5-5-5-5-5------------------|             
D|---22222------5558888|----------889--------------| 
A|---22222------3336666|----------667--------------|
E|---00000------3336666|----------667--------------|
[ Tab from: https://www.guitartabs.cc/tabs/r/rammstein/hilf_mir_tab_ver_3.html ]
Bridge x2     (1:16) 
e|----------------------------------------------------------------------|
B|----------------------------------------------------------------------|
G|----------------------------------------------------------------------|       
D|---777777----9999999----10-10-10-10-10-10----12-12-12-12-12-12-12-----|    
A|---777777----9999999----10-10-10-10-10-10----12-12-12-12-12-12-12-----|
E|---555555----7777777-----8-8-8-8-8--8----10-10-10-10-10-10-10-----|

Repeat Intro Part II x2   (1:33)               

Riff I x4  (2:00)                   
e|-----------|
B|-----------|
G|-----------|
D|---2222----|    
A|---2222----|
E|---0000----|

Repeat Bridge x2   (2:17) 

Chorus x4 (2:37)
e|-------------------------------------|
B|-------------------------------------|
G|-------------------------------------|
D|--2----------7--------10--------9----|   
A|--2----------7--------10--------9----|
E|--0----------5---------8--------7----|

Riff II x12      (3:14)
e|------------------|
B|------------------|
G|------------------|
D|-2222222222222888-|   
A|-2222222222222666-|
E|-0000000000000666-|

Riff III      (4:24)
e|----------------------------------------|
B|----------------------------------------|
G|----------------------------------------|
D|-222222----222222----2222222-----222222-|
A|-222222----222222----2222222-----222222-|
E|-000000----000000----0000000-----000000-|


For comments etc. please contact me: wilderwein@in.gr