Rammstein - Benzin Chords & Tabs

 

Benzin Chords & Tabs

Rammstein Chords & Tabs

Version: 3 Type: Tab

Benzin Tab

Band: Rammstein
Song: Benzin
Album: Rosenrot

Itís an very easy song (for guitar), just like the others of Rammstein.

Tuning: EADGBE

Intro, Verse, Fill
E|--------------------------------------------------|
B|--------------------------------------------------|
G|--------------------------------------------------|
D|---5---4-----5---4--/8------5---4-----5---4-------|
A|---------------------------------------------3----|
E|--------------------------------------------------|
Later in the song strummed up and down. Play this with the same finger.
[ Tab from: https://www.guitartabs.cc/tabs/r/rammstein/benzin_tab_ver_3.html ]
Riff, PreChorus
E|----------------------------|
B|----------------------------|
G|--555555555555555555555555--|
D|--555555555555555555555555--|
A|--333333333333333333333333--|
E|----------------------------|

Refrain
E|------------------------------------------------|
B|------------------------------------------------|
G|--5----6----5---5-5-5-6--8-----5----6----5--6--8|
D|--5----6----5---5-5-5-6--8-----5----6----5--6--8|
A|--3----4----3---3-3-3-4--6-----3----4----3--4--6|
E|------------------------------------------------|

Intro       x2
Riff        x2
Verse       x2
Refrain
Verse
Refrain     x2
Riff        x2
Fill        x2
PreChorus
Refrain
Riff

Questions: jobkeonline@gmail.com, band: www.theprostitudes.tk