Rage Against The Machine - Rage Against The Machine Chords & Tabs

 

Rage Against The Machine Chords & Tabs

Rage Against The Machine Chords & Tabs

Version: 1 Type: Bass Tab

Rage Against The Machine Bass Tab

   
Rage against the machines entire first album
ONLY PUT TOGETHER BY ME,I DIDNíT TAB ALL OF IT
Good luck,Rage rock.

Bombtrack Bass Tab by Rage Against The Machine


Intro:
G[----------------------------0------------------------]
D[---2-0--0---------2-0---0-2--------------------------]
A[-------2--2-0---------2------------------------------]
E[-0------------3-0------------------------------------]

G[----------------------------------------------------]
D[---2-0--0---------2-0---0---------------------------]
A[-------2--2-0---------2---2-------------------------]
E[-0------------3-0------------3-2--------------------]

G[----------------------------0------------------------]
D[---2-0--0---------2-0---0-2--------------------------]
A[-------2--2-0---------2------------------------------]
E[-0------------3-0------------------------------------]

G[----------------------------------------------------]
D[---2-0--0---------2-0---0---------------------------]
A[-------2--2-0---------2---2-------------------------]
E[-0------------3-0------------3-2--------------------]

Chorus:
G[----------------------------------------------------]
D[------4----------4-2-----4-----6--5--4--------------]
A[-------------------------------4--3--2--------------]
E[-0-2----0-2--0-2-----0-2---0-2----------------------]

Verse:
G[----------------------------------------------------]
D[-------------------------------4--2-----------------]
A[------------------------------------4-3-2-----------]
E[-2-2-0--2-2-2-2--5^-2-2-0-2-0-------------5---------]

Lead up to Guitar Solo:
G[-----------------------------------------------------------]
D[-----------------------------------------------------------]
A[-----------------------------------------------------------]
E[-0-0-0-0-0-0-0-0-0-0-0-0-0-0-0-0-0-0-0-0-0-0-0-0-0-0-0-0-0-]

G[-------------------------------------------]
D[-------------------------------------------]
A[-7-7-7-7-7-7-7-7-7-------------------------]
E[-------------------------------------------]

Heavy Bit: (also played during solo)
G[--------------------xxx--------------------------------]
D[--------------------xxx--------------------------------]
A[--------------------xxx-----------------4p0-3p0-2p0----]
E[-2p0-2p0-5^-2p0-2p0-xxx-2p0-2p0-5^-2p0-----------------]

Last bar after Chorus Rif:
G[----------------------------------------------------]
D[------4----------4-2-----4-----6--5--4---4-3-2------]
A[-------------------------------4--3--2---2-1-0------]
E[-0-2----0-2--0-2-----0-2---0-2----------------------]

Killing In The Name Bass Tab by Rage Against The Machine

Rage Against The Machine - Killing In The Name

*Dropped D Tuning*

Intro/Outro
G|--------------|
D|--------------|
A|-------6-6-6--|
D|-0-0-0--------|

"Some of those that..."
G|-------------------------|
D|---------3h4-------------|
A|----3h5------5-----------|
D|-0--------------0-2h3-2--|

Variation during second time
G|--------------------------------10--|
D|-----------------------10-11-12-----|
A|----3h5--8h9--10-11-12--------------|
D|-0----------------------------------|

"Killing in the name of"
G|----------4----------3---------2--------------|
D|----------------------------------------------|
A|----3h5-5------3h5-5-----3h5-5----------------|
D|-0----------0----------0---------0-2h3-2h3-2--|

"Now you do what they told ya"
G|---------|
D|---------|
A|-5-5--5--|
D|---------|

"Those who died..."
G|-----------------|
D|-----------------|
A|-5-5--5-5-----3--|
D|----------3-5----|

"Fuck you..."
G|---------------|
D|---------------|  gradually increase volume
A|---------------|
D|-0-0-0-0-0-0-0-|

Take The Power Back Bass Tab by Rage Against The Machine

Tuning: drop D

intro(after hitting 0--0 x4)
G|-------------------------------------------------------------------------|
D|-------------3p0-------3-------------------------------------------------|
A|--------3h5-------3h5----------------------------------------------------|
D|--0--0----------------------0--0-----------------------------------------|

singing part, during solo
G|-------------------------------------------------------------------------|
D|-------------3(p0)-------3-----------------------------------------------|
A|--------3h5---------3h5--------------------------------------------------|
D|--0--0-------------------------------------------------------------------|

about every 4th time a slight change
G|-----------------------5h7-----------------------------------------------|
D|-------------3h5--5h7----------------------------------------------------|
A|--------3h5--------------------------------------------------------------|
D|--0--0-------------------------------------------------------------------|
(sometimes this part is not heard)

fill: "we gotta take the power back..."
G|-------------------------------------------------------------------------|
D|-------------------------------------------------------------------------|
A|-----5-------3--4--5-----------------------------------------------------|
D|--0-------0-----------0--0-----------------------------------------------|
x4

last time
G|-------------------------------------------------------------------------|
D|-------------------------------------------------------------------------|
A|-----5-------3-----------------------------------------------------------|
D|--0-------0--------------------------------------------------------------|

fill:  "like this..."
G|-------------------------------------------------------------------------|
D|-------------------------------------------------------------------------|
A|--5--4--3--------3-------------------------------------------------------|
D|-----------3--5----------------------------------------------------------|


after fill   "the teacher stands..."
G|-------------------------------------------------------------------------|
D|-------------------------------------------------------------------------|
A|--0--0-------------------------------------------------------------------|
D|--0--0-------------------------------------------------------------------|

then the small solo  "no more lies..."
G|-------------------------------------------------------------------------|
D|--2-----2------2--3--3------3------3--5--5---0--5---0--5--3--3-----3----3|
A|-----3------3------------3------3-------------------------------3-----3--|
D|-------------------------------------------------------------------------|
x4

outro
G|-------------------------------------------------------------------------|
D|-------------------------------------------------------------------------|
A|--5-4-3-x-5-4-3-x-5-4-3-x-3-3333-4---------------------------------------|
D|-------------------------------------------------------------------------|

last chord
G|-------------------------------------------------------------------------|
D|-------------------------------------------------------------------------|
A|-------------------------------------------------------------------------|
D|--14-----14\-------------------------------------------------------------|

Settle For Nothing Bass Tab by Rage Against The Machine

   Riff 1.

G:-------7-----7--------7-----7--------7-----7--------7-----7----------|
D:*---------0-----9--------0-----8--------0-----7--------0-----8------*|
A:*-------------------------------------------------------------------*|
E:---------------------------------------------------------------------|

    Riff 2.

G:-------------------|
D:*-----------------*|
A:*-----------------*|
E:---5--0--1--3--2---|

Bullet In The Head Bass Tab by Rage Against The Machine

G|-------------7-|
D|-------------6-|
A|7-7---7-7-7----|
E|------------0--|


riff2
G|-------------------|
D|-------------------|
A|-------------------|
E|0-3-5------7-3-5-0-|

Riff3(this is fast!!! Use your fingers and if thats too hard use a plectrum!)
G|--------------------------------|
D|--------------------------------|
A|7-7-7-7-7-5---------------------|
E|------------5-6-5-0-3-5-3-0-0-0-|

Know Your Enemy Bass Tab by Rage Against The Machine

Intro
G|------|------|---------4--|
D|------|------|---------2--|
A|------|------|------------|
E|-2----|-2----|-2--0-2-----|

Chorus
G|-------------|
D|-6--4--2-----|
A|-4--2--0-----|
E|----------0--|

G|-------------------------------------------|
D|-------------------------------------------|
A|------------------------------------3-2----|
E|-0h2--2--2--2-5-2-0-2--0h2--2--2--2-----5--|

G|-----------------------------------|
D|-----------------------6--4--2-----|
A|-----------------------4--2--0-----|
E|-0h2--2--2--2-5-2-0-2-----------0--|

Verse
G|---------------------------|----------------------------|
D|-4---------------------2-3-|-4--------------------------|
A|---------------2--3--4-----|---------------2--3--2------|
E|---2--0--2--5--------------|---2--0--2--5----------5-2--|

Bridge
G|---------------------------------|
D|------------------------------2--|
A|------------------------------0--|
E|-2-2-2--0-1-2-2-2--0-1-2-2-2-----|

G|---------------------------------------|
D|------------------------------5--4-----|
A|------------------------------3--2--0--|
E|-2-2-2--0-1-2-2-2--0-1-2-2-2--------0--|

Wake Up Bass Tab by Rage Against The Machine
Dropped-D tuning
R - quarter rest
r - eighth rest
h - hammer-on
* - note held for an eighth beat
|-R-| - rest for one measure
/ - slide up
\ - slide down

Intro (0:00)

Intro 2 (interlude 1 pts. 1-3): (x8)(0:02)
|----------------|----------------|
|----------------|----------------|
|5-5-5-5-R---5-5-|5-5-5-r-5-5-5-5-|
|----------------|----------------|

Intro 3: (0:26)
|----------------|----------------|----------------|----------------|
|----------------|----------------|----------------|----------------|
|--------3-----2-|3---------------|--------3-----2-|3---------------|
|0---0-0-----0---|--0-3-5-3-0-2---|0---0-0-----0---|--0-3-5-3-0-2---|

|----------------|----------------|----------------|----------------|
|----------------|----------------|----------------|----------------|
|--------3-----2-|3---------------|--------3-----2-|3---------------|
|0---0-0-----0---|--0-3-5-3-0-2---|0---0-0-----0---|--0-3-5-3-0-2-0-|

Choruses: (0:38)
|----------------|----------------|----------------|----------------|
|----------------|----------------|----------------|----------------|
|--------3-----2-|3---------------|--------3-----2-|3---------------|
|0---0-0-----0---|--0-3-5-3-0-2---|0---0-0-----0---|--0-3-5-3-0-2---|

|----------------|----------------|----------------|-----------------|
|----------------|----------------|----------------|-----------------|
|--------3-----2-|3---------------|--------3-------|5h7-r-7h8-r-8h10-|
|0---0-0-----0---|--0-3-5-3-0-2---|0---0-0-----0---|-----------------|

|----------------|----------------|----------------|----------------|
|----------------|----------------|----------------|----------------|
|--------3-----2-|3---------------|--------3-----2-|3---------------|
|0---0-0-----0---|--0-3-5-3-0-2---|0---0-0-----0---|--0-3-5-3-0-2---|

|----------------|----------------|----------------|----------------|
|----------------|----------------|----------------|----------------|
|--------3-----2-|3---------------|--------3-----2-|3---------------|
|0---0-0-----0---|--0-3-5-3-0-2---|0---0-0-----0---|--0-3-5-3-0-2---|

Verse 1: (1:02)
|----------------|----------------|----------------|----------------|
|--------3-------|5---------------|--------3-------|5---------------|
|3-5-R-----5-R---|--3-r-3-*-*-4---|3-5-R-----5-R---|--3-r-3-*-*-4---|
|----------------|----------------|----------------|----------------|

|----------------|----------------|----------------|----------------|
|--------3-------|5---------------|--------3-------|5---------------|
|3-5-R-----5-R---|--3-r-3-*-*-4---|3-5-R-----5-R---|--3-r-3-*-*-4---|
|----------------|----------------|----------------|----------------|
[ Tab from: https://www.guitartabs.cc/tabs/r/rage_against_the_machine/rage_against_the_machine_btab.html ]
|----------------|----------------|----------------|----------------|
|--------3-------|5---------------|--------3-------|5---------------|
|3-5-R-----5-R---|--3-r-3-*-*-4---|3-5-R-----5-R---|--3-r-3-*-*-4---|
|----------------|----------------|----------------|----------------|

|----------------|----------------|----------------|---|
|--------3-------|5---------------|----------------|---|
|3-5-R-----5-R---|--3-r-3-*-*-4---|3-5-R---R---R---|-R-|
|----------------|----------------|----------------|---|

|----------------|----------------|----------------|----------------|
|--------3-------|5---------------|--------3-------|5---------------|
|3-5-R-----5-R---|--3-r-3-*-*-4---|3-5-R-----5-R---|--3-r-3-*-*-4---|
|----------------|----------------|----------------|----------------|

|----------------|----------------|----------------|----------------|
|--------3-------|5---------------|----------3---5-|3-6-6-5-3-5-3---|
|3-5-R-----5-R---|--3-r-3-*-*-4---|5-5-5-5-5---5---|--------------5-|
|----------------|----------------|----------------|----------------|

|----------------|----------------|----------------|----------------|
|--------3-------|5---------------|--------3-------|5---------------|
|3-5-R-----5-R---|--3-r-3-*-*-4---|3-5-R-----5-R---|--3-r-3-*-*-4---|
|----------------|----------------|----------------|----------------|

|----------------|----------------|----------------|-----------------|
|--------3-------|5---------------|----------------|-----------------|
|3-5-R-----5-R---|--3-r-3-*-*-4---|3-5-R---R---R---|R---R--/10---\---|
|----------------|----------------|----------------|-----------------|

Chorus 2 (1:47)

Verse 2: (2:10)
|----------------|----------------|----------------|----------------|
|--------3-------|3---------------|--------3-------|5---------------|
|3-5-R-----5-R---|--3-r-3-*-*-4---|3-5-R-----5-R---|--3-r-3-*-*-4---|
|----------------|----------------|----------------|----------------|

|----------------|----------------|----------------|----------------|
|--------3-------|5---------------|--------3-3-5-r-|5-5-6-r-3---5---|
|3-5-R-----5-R---|--3-r-3-*-*-4---|3-5-R-----------|--------------3-|
|----------------|----------------|----------------|----------------|

|----------------|----------------|----------------|----------------|
|--------3-------|5---------------|--------3-------|5---------------|
|3-5-R-----5-R---|--3-r-3-*-*-4---|3-5-R-----5-R---|--3-r-3-*-*-4---|
|----------------|----------------|----------------|----------------|

|----------------|----------------|----------------|---|
|--------3-------|5---------------|----------------|---|
|3-5-R-----5-R---|--3-r-3-*-*-4---|3-5-R---R---R---|-R-|
|----------------|----------------|----------------|---|

|----------------|----------------|----------------|----------------|
|--------3-------|5---------------|--------3-------|5---------------|
|3-5-R-----5-R---|--3-r-3-*-*-4---|3-5-R-----5-R---|--3-r-3-*-*-4---|
|----------------|----------------|----------------|----------------|

|----------------|----------------|----------------|----------------|
|--------3-------|5---------------|----------3---5-|3-6-6-5-3-5-3---|
|3-5-R-----5-R---|--3-r-3-*-*-4---|5-5-5-5-5---5---|--------------5-|
|----------------|----------------|----------------|----------------|

|----------------|----------------|----------------|----------------|
|--------3-------|5---------------|--------3-------|5---------------|
|3-5-R-----5-R---|--3-r-3-*-*-4---|3-5-R-----5-R---|--3-r-3-*-*-4---|
|----------------|----------------|----------------|----------------|

|----------------|----------------|----------------|---|
|--------3-------|5---------------|----------------|---|
|3-5-R-----5-R---|--3-r-3-*-*-4---|3-5--\--R---R---|-R-|
|----------------|----------------|----------------|---|

Solo: (2:55)
|----------------|----------------|----------------|----------------|
|----------------|----------------|----------------|----------------|
|--------3-----2-|3---------------|--------3-----2-|3---------------|
|0---0-0-----0---|--0-3-5-3-0-2---|0---0-0-----0---|--0-3-5-3-0-2---|

|----------------|----------------|----------------|-----------------|
|----------------|----------------|----------------|-----------------|
|--------3-----2-|3---------------|--------3-------|5h7-r-7h8-r-8h10-|
|0---0-0-----0---|--0-3-5-3-0-2---|0---0-0-----0---|-----------------|

|----------------|----------------|----------------|----------------|
|----------------|----------------|----------------|----------------|
|--------3-----2-|3---------------|--------3-----2-|3---------------|
|0---0-0-----0---|--0-3-5-3-0-2---|0---0-0-----0---|--0-3-5-3-0-2---|

|----------------|----------------|----------------|----------------|
|----------------|----------------|----------------|----------------|
|--------3-----2-|3---------------|--------3-----2-|3---------------|
|0---0-0-----0---|--0-3-5-3-0-2---|0---0-0-----0---|--5-5-3-5-0-3-5-|

Bridge pt.1: (3:17)
|----------------|----------------|----------------|----------------|
|----------------|----------------|----------------|----------------|
|----------------|----------------|----------------|----------------|
|0-*-*-*-*-*-*-*-|*-5-5-3-5-0-3-5-|3-*-*-*-*-*-*-*-|*-5-5-3-5-0-3-5-|

|----------------|----------------|----------------|----------------|
|----------------|----------------|----------------|----------------|
|----------------|----------------|----------------|----------------|
|0-*-*-*-*-*-*-*-|r-5-5-3-5-0-3-5-|r-5-5-3-5-0-3-5-|r-5-5-3-5-0-3-5-|

|----------------|
|----------------|
|----------------|
|r-5-5-3-5-0-3-5-|

Bridge pt.2 (bridge pt.3): (x4)(3:30)
|----------------|
|----------------|
|----------------|
|0-5-5-3-5-0-3-5-|

Bridge pt.3 (x4)(3:36)
Interlude 1 pt.1 (x4)(3:41)
Interlude 1 pt.2 (x4)(3:52)
Interlude 1 pt.3 (x8)(4:04)

Fill: (4:28)
|----------------|---|
|----------------|---|
|5-\-R---R---R---|-R-|
|----------------|---|

Interlude 2: (x12)(4:31)
|----------------|----------------|
|----------------|----------------|
|--------3-----2-|3---------------|
|0---0-0-----0---|--0-3-5-3-0-2---|

Outro chorus: (5:06)
|----------------|----------------|----------------|----------------|
|----------------|----------------|----------------|----------------|
|--------3-----2-|3---------------|--------3-----2-|3---------------|
|0---0-0-----0---|--0-3-5-3-0-2---|0---0-0-----0---|--0-3-5-3-0-2---|

|----------------|----------------|----------------|-----------------|
|----------------|----------------|----------------|-----------------|
|--------3-----2-|3---------------|--------3-------|5h7-r-7h8-r-8h10-|
|0---0-0-----0---|--0-3-5-3-0-2---|0---0-0-----0---|-----------------|

|----------------|----------------|----------------|----------------|
|----------------|----------------|----------------|----------------|
|--------3-----2-|3---------------|--------3-----2-|3---------------|
|0---0-0-----0---|--0-3-5-3-0-2---|0---0-0-----0---|--0-3-5-3-0-2---|

|----------------|----------------|----------------|----------------|
|----------------|----------------|----------------|----------------|
|--------3-----2-|3---------------|--------3-----2-|3---------------|
|0---0-0-----0---|--0-3-5-3-0-2---|0---0-0-----0---|--0-3-5-3-0-2---|

(w/ some form of distortion)
|----------------|----------------|----------------|----------------|
|----------------|----------------|----------------|----------------|
|--------3-----2-|3---------------|--------3-----2-|3---------------|
|0---0-0-----0---|--0-3-5-3-0-2---|0---0-0-----0---|--0-3-5-3-0-2---|

|----------------|----------------|----------------|-----------------|
|----------------|----------------|----------------|-----------------|
|--------3-----2-|3---------------|--------3-------|5h7-r-7h8-r-8h10-|
|0---0-0-----0---|--0-3-5-3-0-2---|0---0-0-----0---|-----------------|

|----------------|----------------|----------------|----------------|
|----------------|----------------|----------------|----------------|
|--------3-----2-|3---------------|--------3-----2-|3---------------|
|0---0-0-----0---|--0-3-5-3-0-2---|0---0-0-----0---|--0-3-5-3-0-2---|

|----------------|----------------|----------------|----------------|
|----------------|----------------|----------------|----------------|
|--------3-----2-|3---------------|--------3-----2-|----------------|
|0---0-0-----0---|--0-3-5-3-0-2---|0---0-0-----0---|0-5-5-3-5-0-3-5-|

(5:52)
|----------------|----------------|----------------|----------------|
|----------------|----------------|----------------|----------------|
|----------------|----------------|----------------|----------------|
|0-*-*-*-*-*-*-*-|*-*-*-*-*-*-*-*-|*-*-*-*-*-*-*-*-|*-*-*-*-*-*-*-*-|


Fistfull Of Steel Bass Tab by Rage Against The Machine


Intro/Chorus
G|--------------------|
D|--------------------|
A|--------------------|
E|-0h2-2--0h2-2--12\--|

Verse
G|------------------------------|
D|----/4-------------/4---------|
A|--------0-2-3----------0-2-3--|
E|-2------------2-2-------------|

G|------------------|
D|----4-2-----------|
A|--------4--3-2-0--|
E|-2----------------|

Solo
G|-------------------------------|
D|-------------------------------|
A|-------------------------------|
E|-2-2-0--2--0-2--0-2--0-/5--7h8-|

G|----------------------------|
D|--------------4-2-----------|
A|------------------4--3-2-0--|
E|-2-2-0--2--0----------------|

Ending
G|-------------------------|
D|----------4-3-2---4-3-2--|
A|-------0--------0--------|
E|-0--2--------------------|

G|-------------|
D|-------------|
A|-------------|
E|-0--2-----2--|

Township Rebellion Bass Tab by Rage Against The Machine, www.Ultimate-Guitar.Com

Intro
G----------|
D----------|
A-5-55-5-5-|
E----------|

Verse(listen 4 timing)
G------------|
D------------|
A-5b-5b5b-5b-|
E------------|

Chorus(why stand on a silent platform...)
G-------------------------------------------------------------------------------|
D------------------------------------------------------------------------5b5-32-|
A-3-5-0---3-5-0---3-5--3-5-0--3-5-0---5-0-3-5-0--3-5-0--3-5-3-5-0---3-5-0-------|
E-------6-------6------------6------6-----------6------6----------6-------------|

Outro
G--------------|
D--------------|
A-2-3-2-3-0----|
E----------5-3-|

Freedom Bass Tab by Rage Against The Machine


Dropped D Tuning

Riff 1
G----------------------------------------------------------------------------|
D----------------------------------------------------------------------------|
A-----5-------3-------5-5-----5-------3-------5------------------------------|
D-------0-3-5---5-3-5-----0-3---0-3-5---5-3-5--------------------------------|


G----------------------------------------------------------------------------|
D------------------------------------------------5-4-3-----------------------|
A-----5-------3-------5-5-----5-------3-------5--------5-4-3-----------------|
D-------0-3-5---5-3-5-----0-3---0-3-5---5-3-5--------------------------------|


Riff 2
G-----------------------------------------------------------------------------|
D-----------------------------------------------------------------------------|
A-----------------------------------------------------------------------------|
D---0--0--R--0--0--R--0--0--R--0--0--R--0--0--R--0--0--R--0--0----------------|

Riff 3                         X a bunch
G-----------------------------------|
D-----------------------------------|
A-----3-3-3-3-3-3-5--5-5-5-3-5------|
D-----------------------------------|

                                                4 TIMES
G------------------------------------------------------|
D*--------------5-3-5-3-5-----------------------------*|
A*---5-3-5-3-5------------3-2-3-2-3-------------------*|
D-------------------------------------5-3-5-3-5-3------|

Do Riff 2 again.


G-----------------------------------------|
D*---------------------------------------*|
A*-----------------0--3--4--5------------*|
D--------3--5--6--------------------------|

Put together by Will-eh,any comments send to Will_the_bass_player@msn.com