Radiohead - Karma Police Chords & Tabs

 

Karma Police Chords & Tabs

Radiohead Chords & Tabs

Version: 6 Type: Bass Tab

Karma Police Bass Tab

Intro and 1st verse

G |: -----------------------------------------------|
D |: -----------------------------------------------|
A |: -----------------------------------------------|
E |: 12/55-220-02-33--3/55-5-2-2-2-2-0-0-2-3-3-|

G |: -------------------------------------------------|
D |: -------------------------------------------2/4---|
A |: ------------------------3-2------------2-2-----5-|
E |: 5--5-5/10--10-10-3--3-3------5-5-555-3-----------|

2nd and 3rd verse

G |: ----------------------------------------------------|
D |: ----------------------------------------------------|
A |: -----------------------------------8-8-8-10-7-------|
E |: 5--5-5-2-2-2-1-0-0-0-2-3-3--5--5-5------------0-2-3-|

G |: --------------------------------------------------|
D |: --------------------------------------------2/4---|
A |: -------5--5-5--------3-3-2-2------------2-2-----5-|
E |: 5--5-5--------3--3-3----------5-5-555-3-----------|

chorus

no bass until

when you mess with us.....
[ Tab from: https://www.guitartabs.cc/tabs/r/radiohead/karma_police_btab_ver_6.html ]
G |: -----------------------------|
D |: -----------------------------|
A |: 3-3-3333-332222/5555---------|
E |: -----------------------------|

outro

riff 1

G |: ---------------------------------------------------|
D |: --------------------------------------76-----------|
A |: 2222-5555-----5555----55555/7777-77-57-7----------|
E |: ----------3333----3333----------0-0---------------|

riff 2

G |: ---------------0-2-4-0------------------------------------------|
D |: -------0-2-4-0---------0-2-4-0----------------------------------|
A |: 2-4-5-2--------------------------------5-5-5-5-5h7777-5757-7575-|
E |: -------------------------------3-3-3-3--------------------------|

riff 3

G |: --------------------------------------------------------------------|
D |: --------0-2-4-0-----------------------------------------------------|
A |: 2-4-5-2-----------0-2---5-7-9-5---------5-7-9-5-5h7777---5h7-5h7-75-|
E |: ----------------3-----3---------3-5-7-3-----------------0---0---0---|

Riff 1 x 2
Riff 2 x 2
Riff 3
Riff 2 x 2