Probot - I Am The Warlock Chords & Tabs

 

I Am The Warlock Chords & Tabs

Probot Chords & Tabs

Version: 1 Type: Bass Tab

I Am The Warlock Bass Tab

Song: I Am The Warlock
Artist: Probot featuring Jack Black
Album: Probot
Bassist: Dave Grohl

Hidden Track, track 11 around 9 minutes in. Itís very funny, very simple, and very awesome.



Intro:
|------------------|
|------------------|
|---5----3---------|
|6----5----3---0---|


Main Riff:
|------------------------------------------------------------------
|------------------------------------------------------------------
|-----5----3-------3-5-----3-5--5-5-----5-----3-----------5----3---
|-3-5----------0-0-----0-0----------3-5-----------0-0--6----5----3-


Interlude 1
[ Tab from: https://www.guitartabs.cc/tabs/p/probot/i_am_the_warlock_btab.html ]
|---------------------------------------------------|
|---------------------------------------------------|
|---------------------------------------------------|
|-3-3-3-3-3-3-3-3--5-5-5-5-5-5-5-5--0-0-0-0-0-0-0-0-|

 interlude 1 ends with:
|-------------------------------------------------|
|-------------------------------------------------|
|--------------------------------------5-----3----|
|-3-3-3-3-3-3-3-3-5-5-5-5-5-5------6-----5-----3--|

Interlude 2

|---------------------------------|
|---------------------------------|
|-1-1-1-1-1-3-3-3-----------------|
|-----------------5-5-5-5-5-5-5-5-|


 interlude 2 ends with:
|---------------------------------|
|---------------------------------|
|-1-1-1-1-1-3-3-3-----5---3-------|
|-----------------6----5----3-----|