Primus - Hello Skinny Chords & Tabs

 

Hello Skinny Chords & Tabs

Primus Chords & Tabs

Version: 4 Type: Bass Tab

Hello Skinny Bass Tab

Hello Skinny/Constantinople


Riff 1
G-------------------------|
D-------------------------|
A-/6-6-6-6---/7-7-7-7-7-7-|
E-------------------------|

That repeats until it changes tempo a little for the Constantinople riff.

Riff 2
G------------------------|
D------------------------|
A--9-8-9-----------------|
E--------8---------------|


Then, during the lyrics, it looks something like this.
[ Tab from: https://www.guitartabs.cc/tabs/p/primus/hello_skinny_btab_ver_4.html ]
Riff 3
G--------------------------------------------|
D--------------------------------------------|
A---1-1-1--1-1--x-1-1---1-1-1--1-1--x-1-1----|
E--------------------------------------------|

G--------------------------------------------|
D--------------------------------------------|
A---4-4-4--4-4--x-4-4---1-1-1--1-1--x-1-1----|
E--------------------------------------------|

From there, it just repeats to the end, alternating from the second riff to the third 
You can listen to the song to find out how many times it repeats, because its a lot and 
too lazy to sit and count em.