Powderfinger - Dont Wanna Be Left Out Chords & Tabs

 

Dont Wanna Be Left Out Chords & Tabs

Powderfinger Chords & Tabs

Version: 2 Type: Bass Tab

Dont Wanna Be Left Out Bass Tab

Donít wanna be left out by Powderfinger

Transcribed by Mark Gellatly 
markgellatly@hotmail.com

Intro/Verse

G-------------------------------------------------------------------------------------|
D-------------------------------------------------------------------------------------|
A-------------------------------------------------------------------------------------|
E---1-1-1-1-1-1-1-1---4-4-4-4-4-4-4-4---1-1-1-1-1-1-1-1---6-6-6-6-6-6-6-6---|



Chorus
[ Tab from: https://www.guitartabs.cc/tabs/p/powderfinger/dont_wanna_be_left_out_btab_ver_2.html ]
G------------------------------------------------------------------------|
D------------------------------------------------------------------------|
A---4-4-4-4-4-4-4-4---------------------------------------------------|
E------------------------4-4-4-4-4-4-4-4---6-6-6-6-6-6-6-6---8-8---|



Interlude

G------------------------------------------------------------------------------------|
D------------------------------------------------------------------------------------|
A---8-8-8-8-8-8-8-8----------------------------------------------------------------|
E-----------------------4-4-4-4-4-4-4-4---9-9-9-9-9-9-9-9---8-8-8-8-8-8-8-8---|