Poets Of The Fall - Carnival Of Rust Chords & Tabs

 

Carnival Of Rust Chords & Tabs

Poets Of The Fall Chords & Tabs

Version: 2 Type: Bass Tab

Carnival Of Rust Bass Tab

Poets Of The Fall  Carnival Of Rust   Bass Tab

There was only one bass tab for this song, which was not very satisfying so I made
quickly my own one. ;)
Should be better than ok, but I will improve it probably yet. But enjoy this version at first. :)


Standard

Tabbed by Der Bassist


Intro
G|---------------------------------|
D|-----------------12---(14/-11)---|
A|---9---12---14-------------------|
E|---------------------------------|


1.Verse x4
G|----------------------------|
D|----------------------------|
A|------------------4-5---7---|
E|---2---5---7----------------|

G|-----------------------------------|
D|-----------------------------------|
A|-----------------------4-5--5-4---|
E|---2---2-4-5---2-7---7-------------|

G|-------------------------------|
D|-------------------------------|
A|-------------------4-5---5-7---|
E|---2---4-5---7---7-------------|

G|----------------------------------|
D|----------------------------------|
A|-----------------------4-5-5-4---|
E|---2--4-5---5-9-7---7------------|


1. Chorus x 2
G|----------------------------------------------|
D|----------------------------------------------|
A|---9--9----9---7--7---7---5--5--5---2--2-0---|
E|---------9----------7----------5--------------|

G|-----------------------|
D|-----------------------|
A|---5-5--5--2--2-2-0---|
E|-------5---------------|


Bridge (only guitar...)

[ Tab from: https://www.guitartabs.cc/tabs/p/poets_of_the_fall/carnival_of_rust_btab_ver_2.html ]
2.Vers x4
G|--------------------------------|
D|--------------------------------|
A|--------------------4-5---5-7---|
E|--5-4-2---5---7---7-------------|

G|-------------------------------------|
D|-------------------------------------|
A|-------------------------4-5--5-4---|
E|---2---2-4-5---5-9-7---7-------------|

G|---------------------------------|
D|---------------------------------|
A|---------------------4-5---5-7---|
E|---2---2-5---2-7---7-------------|

G|---------------------------------|
D|---------------------------------|
A|---------------------4-5---5-4---|
E|---2---5---5-9-7---7-------------|


2.Chorus x4


Bridge		(guitar piano violin)

second time + Bass
G|-----------------------|
D|-----------------------|
A|---9---7---5---2---0---|
E|-----------------------|


Outro 1  x2
G|--------------------------------------------------------|
D|--------------------------------------------------------|
A|---9--9----9----7--7----7-----5--5----5------2--2-0-0---|
E|---------9---9--------7---7---------5---5---------------|

G|------------------------------------------------|
D|------------------------------------------------|
A|---9--9----9----7---7------5--5----5-2--2-------|
E|---------9---9----9-----7-----------------5-----|

G|----------------------------|
D|----------------------------|
A|---5--5----5---2---0--------|
E|---------5---5---------2~---|


Outro 2
G|---------------------------|
D|-----------------12---11---|
A|---9---12---14-------------|
E|---------------------------|