Pod - Addicted Chords & Tabs

 

Addicted Chords & Tabs

Pod Chords & Tabs

Version: 2 Type: Tab

Addicted Tab

   
---------------------------------------------------------------------------
			     Addicted  - P.O.D
---------------------------------------------------------------------------
Tabbed by:Mathies621
Email:Mathies_621@hotmail.com

Tuning:Drop D

Intro
e|--------------------------------------------|
B|--------------------------------------------|
G|--------------------------------------------|
D|--------------------------------------------|
A|3-3-x-x-x--3-3-x-x-x--3-3-x-x-x--3-3-x-x-x--|
D|3-3-x-x-x--3-3-x-x-x--3-3-x-x-x--3-3-x-x-x--|

Verse
e|-------------------------------------------------------------------------|
B|-------------------------------------------------------------------------|
G|-------------------------------------------------------------------------|
D|-------------------------------------------------------------------------|
A|3-3-x-x-x--3-3-x-x-x--3-3-x-x-x--3-3-x-x-x-----------0-0-x-x-x--0-0-x-x-x|
D|3-3-x-x-x--3-3-x-x-x--3-3-x-x-x--3-3-x-x-x--5-4-3----0-0-x-x-x--0-0-x-x-x|

e|--------------------------------------------------------------------------|
B|--------------------------------------------------------------------------|
G|--------------------------------------------------------------------------|
D|--------------------------------------------------------------------------|
A|0-0-x-x-x--0-0-x-x-x-----------3-3-x-x-x--3-3-x-x-x--3-3-x-x-x--3-3-x-x-x-|
D|0-0-x-x-x--0-0-x-x-x--4-5-4-3b-3-3-x-x-x--3-3-x-x-x--3-3-x-x-x--3-3-x-x-x-|


e|---------|
B|---------|
G|---------|
D|---------|
A|---------|
D|--5-4-3--|


CHORUS:

e|------------------|
B|------------------|
G|------------------|
D|----------0-3-0---| Play this 4 times
A|-0-0-3-33-------3-|
D|------------------|

e|--------------------|
B|--------------------|
G|--------------------|
D|----------1-4-1-----| This is 4 times too
A|-1-1-4-44-------4---|
E|--------------------|
[ Tab from: https://www.guitartabs.cc/tabs/p/pod/addicted_tab_ver_2.html ]
Verse
e|-------------------------------------------------------------------------|
B|-------------------------------------------------------------------------|
G|-------------------------------------------------------------------------|
D|-------------------------------------------------------------------------|
A|3-3-x-x-x--3-3-x-x-x--3-3-x-x-x--3-3-x-x-x-----------0-0-x-x-x--0-0-x-x-x|
D|3-3-x-x-x--3-3-x-x-x--3-3-x-x-x--3-3-x-x-x--5-4-3----0-0-x-x-x--0-0-x-x-x|

e|--------------------------------------------------------------------------|
B|--------------------------------------------------------------------------|
G|--------------------------------------------------------------------------|
D|--------------------------------------------------------------------------|
A|0-0-x-x-x--0-0-x-x-x-----------3-3-x-x-x--3-3-x-x-x--3-3-x-x-x--3-3-x-x-x-|
D|0-0-x-x-x--0-0-x-x-x--4-5-4-3b-3-3-x-x-x--3-3-x-x-x--3-3-x-x-x--3-3-x-x-x-|


CHORUS: Play this twice

e|------------------|
B|------------------|
G|------------------|
D|----------0-3-0---| Play this 4 times
A|-0-0-3-33-------3-|
D|------------------|

e|--------------------|
B|--------------------|
G|--------------------|
D|----------1-4-1-----| This is 4 times too
A|-1-1-4-44-------4---|
D|--------------------|

Bridge

e|----------|
B|----------|
G|----------|
D|----------|
A|----------|
D|-3-5h6-3-3|


CHORUS: Repeat this twice

e|------------------|
B|------------------|
G|------------------|
D|----------0-3-0---| Play this 4 times
A|-0-0-3-33-------3-|
D|------------------|

e|--------------------|
B|--------------------|
G|--------------------|
D|----------1-4-1-----| This is 4 times too
A|-1-1-4-44-------4---|
D|--------------------|


e|---------------------------------------------|
B|---------------------------------------------|
G|---------------------------------------------|
D|---------------------------------------------|
A|3-3-x-x-x--3-3-x-x-x--3-3-x-x-x--3-3-x-x-x--0|
D|3-3-x-x-x--3-3-x-x-x--3-3-x-x-x--3-3-x-x-x--0|


I didnít get the solo during  the bridge Ill try to figure it out and post it later


| /  slide up
| \  slide down
| h  hammer-on
| p  pull-off
| ~  vibrato
| +  harmonic
| x  Mute note
| b  Bend String
===============================================================================