Plus 44 - When Your Heart Stops Beating Chords & Tabs

 

When Your Heart Stops Beating Chords & Tabs

Plus 44 Chords & Tabs

Version: 5 Type: Tab

When Your Heart Stops Beating Tab

  Intro (x2)
  |---------------------------------12----------------|
  |10------------8----10---------------13~------------|
  |--9---9----9----0-----9---9----9-------------------|      
  |----7---10--------------7---10---------------------|
  |---------------------------------------------------|
  |---------------------------------------------------| 

  Verse (4x) 
  |---------------------------------------------------|
  |---------------------------------------------------|
  |------------------55555555-------------------------|
  |-7777777777777777-55555555-55555555----------------|
  |-7777777777777777-33333333-55555555----------------|
  |-5555555555555555----------33333333----------------|
 
   Verse Guitar 2
  |---------------------------------------------------|
  |-----------8-8-8-8---------------------------------|
  |-----------0-0-0-0---------------------------------|
  |---------------------------------------------------|
  |---------------------------------------------------|
  |---------------------------------------------------|
  Break Down..
  Let Down..
  Devices..

  Chorus (2x)
  |---------------------------------------------------|
  |---------------------------------------------------|
  |----------55555555----------22222222---------------|
  |-33333333-55555555-22222222-22222222---------------|
  |-33333333-33333333-22222222-00000000---------------|
  |-11111111----------00000000------------------------|

  Chorus (3x)
  |-0-0----------0-0----------------------------------|
  |-----1--3-3-1-----1--3-3-3--1----------------------|
  |---------------------------------------------------|
  |---------------------------------------------------|
  |---------------------------------------------------|
  |---------------------------------------------------| 

  |-0-0---------0-0----1-1-0-0-1-1-0-0----------------|
  |-----1-3-3-1-----1---------------------------------|
  |---------------------------------------------------|
  |---------------------------------------------------|
  |---------------------------------------------------|
  |---------------------------------------------------|

  Intro
  |---------------------------------12----------------|
  |10------------8----10---------------13~------------|
  |--9---9----9----0-----9---9----9-------------------|      
  |----7---10------=-------7---10---------------------|
  |---------------------------------------------------|
  |---------------------------------------------------| 

  Verse (2x)
  |---------------------------------------------------|
  |---------------------------------------------------|
  |------------------55555555-------------------------|
  |-7777777777777777-55555555-55555555----------------|
  |-7777777777777777-33333333-55555555----------------|
  |-5555555555555555----------33333333----------------|
[ Tab from: https://www.guitartabs.cc/tabs/p/plus_44/when_your_heart_stops_beating_tab_ver_5.html ]
  Verse Guitar 2
  |---------------------------------------------------|
  |-----------8-8-8-8---------------------------------|
  |-----------0-0-0-0---------------------------------|
  |---------------------------------------------------|
  |---------------------------------------------------|
  |---------------------------------------------------|
  Against Me...
  The Planet...
  Chorus (2X)
  |---------------------------------------------------|
  |---------------------------------------------------|
  |----------55555555----------22222222---------------|
  |-33333333-55555555-22222222-22222222---------------|
  |-33333333-33333333-22222222-00000000---------------|
  |-11111111----------00000000------------------------|

  Chorus (3x)
  |-0-0----------0-0----------------------------------|
  |-----1--3-3-1-----1--3-3-3--1----------------------|
  |---------------------------------------------------|
  |---------------------------------------------------|
  |---------------------------------------------------|
  |---------------------------------------------------|

  |-0-0---------0-0----1-1-0-0-1-1-0-0----------------|
  |-----1-3-3-1-----1---------------------------------|
  |---------------------------------------------------|
  |---------------------------------------------------|
  |---------------------------------------------------|
  |---------------------------------------------------|

  Bridge 2 (2X)Guitar 1
  |---------------------------------------------------|
  |---------------------------------------------------|
  |---------------------------------------------------|
  |-10---10-----10---9--------------------------------|
  |----7----7-7----7----------------------------------|
  |---------------------------------------------------|
      Guitar 2
  |---------------------------------------------------|
  |---------------------------------------------------|
  |-2-2-2-2---2-2-2-2--5-5-5-5-----------2-2-2-2------|
  |-2-2-2-2---2-2-2-2--5-5-5-5-55555555--2-2-2-2------|
  |-0-0-0-0--0-0-0-0--3-3-3-3-55555555--0-0-0-0------|
  |----------------------------33333333---------------|
Pm  - - - -   - - - -  - - - - --------  - - - -   
    
  |---------------------------------------------------|
  |---------------------------------------------------|
  |-2-2-2-2---2-2-2-2--5-5-5-5-----------2-2-2-2------|
  |-2-2-2-2---2-2-2-2--5-5-5-5-55555555--2-2-2-2------|
  |-0-0-0-0--0-0-0-0--3-3-3-3-55555555--0-0-0-0------|
  |----------------------------33333333-------------|
Bridge 3 (X3)
  |---------------------------------------------------|
  |---------------------------------------------------|
  |------------------9---9-9--------------------------|
  |-10-9-10--10-9-10---------10-9---------------------|
  |---------------------------------------------------|
  |---------------------------------------------------|

  Chorus (2X)
  |---------------------------------------------------|
  |---------------------------------------------------|
  |----------55555555----------22222222---------------|
  |-33333333-55555555-22222222-22222222---------------|
  |-33333333-33333333-22222222-00000000---------------|
  |-11111111----------00000000------------------------|

  Chorus (5x) Guitar 2
  |-0-0----------0-0----------------------------------|
  |-----1--3-3-1-----1--3-3-3--1----------------------|
  |---------------------------------------------------|
  |---------------------------------------------------|
  |---------------------------------------------------|
  |---------------------------------------------------|

  |-0-0---------0-0-----------------------------------|
  |-----1-3-3-1-----1---------------------------------|
  |---------------------------------------------------|
  |---------------------------------------------------|
  |---------------------------------------------------|
  |---------------------------------------------------|

  End
  |---------------------------------------------------|
  |---------------------------------------------------|
  |-22222222~-----------------------------------------|
  |-22222222~-----------------------------------------|
  |-00000000~-----------------------------------------|
  |---------------------------------------------------|