Plus 44 - Baby Come On Acoustic Chords & Tabs

 

Baby Come On Acoustic Chords & Tabs

Plus 44 Chords & Tabs

Version: 1 Type: Tab

Baby Come On Acoustic Tab

Baby ,Come on(Acoustic)
(+44)
Intro
e|----5-------------------------------------|
B|----5-------------------------------------|
G|----7óStrum that a few times in the intro-|
D|----7-------------------------------------|
A|----5-------------------------------------|
E|------------------------------------------|

Verse 1
e|---------------------------------------------------------|
B|---------------------------------------------------------|
G|---------------------------------------------------------|
D|-----7----7----7----7----7--------3----3----3----3---3---|x2
A|--55---55---55---55---55---5---11---11---11---11---11--1-|
E|---------------------------------------------------------|

1st end
e|----------------------------|
B|----------------------------|
G|----------------------------|
D|----5----5-------3----3-----|
A|-33---33---3--11---11---1---|
E|----------------------------|

The repeat the verse without the part above
[ Tab from: https://www.guitartabs.cc/tabs/p/plus_44/baby_come_on_acoustic_tab.html ]
Just Repeat this all over
Chorus
e|--------------------------------|
B|----5-5-x-x-x-1-1-x-x-x-3-3-----|
G|----7-7-x-x-x-3-3-x-x-x-5-5-----|
D|----7-7-x-x-x-3-3-x-x-x-5-5-----|
A|----5-5-x-x-x-1-1-x-x-x-3-3-----|
E|--------------------------------|

End On
e|--------|
B|----1---|
G|----3---|
D|----3---|You figure the strumming
A|----1---|
E|--------|

Bridge 1
e|----------------------------|
B|----------------------------|
G|----------------------------|
D|----7----7----7----7----7---|
A|-55---55---55---55---55-----|
E|----------------------------|

Verse 2
Same as verse 1 but guitar 2 plays this chords you figure out strumming its real easy

e|-----------|
B|--7--1-----|
G|--5--3-----| Donít play on the first end
D|--5--3-----|
A|--7--1-----|
E|-----------|

Chorus

Bridge 2 & last Chorus
e|---------|
B|-1--3----|
G|-3--5----| repeat this sometimes you figure out strumming
D|-3--5----|
A|-1--3----|
E|---------|

Thatís all the song is real easy no one should have any trouble playing it