Planet Hemp - Ex-quadrilha Da Fumaa Chords & Tabs

 

Ex-quadrilha Da Fumaa Chords & Tabs

Planet Hemp Chords & Tabs

Version: 1 Type: Bass Tab

Ex-quadrilha Da Fumaa Bass Tab

Ex-Quadrilha Da Fumaša Bass Tab By Planet Hemp

Intro:

G|--------------------------------------------|  |---------------|
D|-----------------------------4h6p-6-6-4-4-6-|  |2h4h-4-4-2-2-4-|
A|-2h4p-4-4-2------------2-4------------------|  |---------------|
E|------------4-2-0h2p4p----------------------|  |---------------|

Verse:

G|----------------|
D|----------------|
A|-----------2-4--|
E|-4-4-2-4-4------| 

Briedge:
[ Tab from: https://www.guitartabs.cc/tabs/p/planet_hemp/ex_quadrilha_da_fumaa_btab.html ]
G|-------------------------------|
D|-4h2p-2-2-2-2-4----------------|
A|-----------------2h4p-2h4p-----|
E|-------------------------------|
 
During Guitar Solo:

G|-----------------|                                           
D|-----------------|                                      
A|-----------------|                                         
E|4-66666-466666---|                                                

Guitar Solo End:

G|-----------------|
D|-----------------|
A|-4/6-4-----------|
E|-------6---------|

By Leandro Haroutune.

Doubts, corrections or suggestions please mail me:
leandroharoutune@hotmail.com