Placebo - Infra-red Chords & Tabs

 

Infra-red Chords & Tabs

Placebo Chords & Tabs

Version: 1 Type: Tab

Infra-red Tab

   
Placebo - Infra-Red
Tabbed by: Jake (gingerboffinjake@hotmail.com)

This is not only the first tab of this song, but it's also my first tab for 
so I hope i've done well. This is a kick-ass song so listen to it, if not any Placebo. This was 
half by ear, half by watching the video.

This is how to play it in Standard tuning (EADGBe), but this isn't the actual tuning 
I think. It might be played 2 steps down.

Intro
--0--x--3--x--5--x--7------------------------------------------------
--0--x--3--x--5--x--7------------------------------------------------
--0--x--3--x--5--x--7------------------------------------------------
---------------------------------------------------------------------
---------------------------------------------------------------------
--------------------------------------------------------------------- x5

Verse - same as Intro.

Chorus
[ Tab from: https://www.guitartabs.cc/tabs/p/placebo/infra_red_tab.html ]
   G                        F
-------------------------------------------------------------------
-------------------------------------------------------------------
--12-12-12-12-12-12-12-12--10-10-10-10-10-10-10-10-10--------------
--12-12-12-12-12-12-12-12--10-10-10-10-10-10-10-10-10--------------
--10-10-10-10-10-10-10-10--8--8--8--8--8--8--8--8--8---------------
-------------------------------------------------------------------
   I'm coming up on Infra-red, there is no running that can

   C                                     G
-------------------------------------------------------------------
-------------------------------------------------------------------
--5-5-5-5-5-5-5-5-5-5-5-5-5-5-5-5-5-5-5----12-12-12-12-12-12-12-12-
--5-5-5-5-5-5-5-5-5-5-5-5-5-5-5-5-5-5-5----12-12-12-12-12-12-12-12-
--3-3-3-3-3-3-3-3-3-3-3-3-3-3-3-3-3-3-3----10-10-10-10-10-10-10-10-
--------------------------------------x2 then----------------------
   hide you,     'cos I can see in the dark

 The only part i'm not sure about is the chord played before the chorus.

Pattern

Intro
Verse
Chorus
Intro again
Verse
Bridge
Chorus x2
Intro