Pink Floyd - Fearless Chords & Tabs

 

Fearless Chords & Tabs

Pink Floyd Chords & Tabs

Version: 2 Type: Chords

Fearless Chords

   
Fearless
Pink Floyd

This is my first tab. Please don't harshly misjudge any mistakes, and if you find 
any, please let me know. Thank you.

Tuning: G G D G B B

      G    A   A#   C     D
|----0----2----3----5----7----|
|----0----2----3----5----7----|
|----0----2----3----5----7----|
|----0----2----3----5----7----|
|----0----2----3----5----7----|
|----0----2----3----5----7----|

FILL:
G|----0----0----0----0----0----0----0----0----0----0----0----0----0----0----0----0----0-------|
G|----0----0----0----0----0----0----0----0----0----0----0----0----0----0----0----0----0-------|
D|----0----0----4----x----x----5----x----x----7----x----x----9----x----x----11---x----12s0----|
G|----0----0----0----0----0----0----0----0----0----0----0----0----0----0----0----0----0-------|
B|----0----0----4----x----x----5----x----x----7----x----x----9----x----x----11---x----12s0----|
B|----0----0----0----0----0----0----0----0----0----0----0----0----0----0----0----0----0-------|


FILL, C A# A#
[ Tab from: https://www.guitartabs.cc/tabs/p/pink_floyd/fearless_crd_ver_2.html ]
G                                     		C A# A#
You say the hill's too steep to climb

G                                     		C A# A#
Climb it

G                                     		C A# A#
You say you'd like to see me try

G                                     		C A# A#
Climbing

A                                       D
You pick the place and I'll choose the time

         G                     C
And Ill climb that hill in my own way

G                         C
Just wait awhile for the right day


G                          C
And as I rise above the tree line and the clouds

          D                  C                                 G
I'll look down hear the sounds of the things you said today

FILL, C A# A#

Fearlessly the idiot faced the crowd

Smiling.

Merciless the magistrate turns round

Frowning.

And whos the fool who wears the crown?

No doubt,

In your own way

And every day is the right day

And as you rise above the fear-lines in his brow

You look down, hear the sound of the faces in the crowd.