Pink - U Plus Ur Hand Chords & Tabs

 

U Plus Ur Hand Chords & Tabs

Pink Chords & Tabs

Version: 1 Type: Tab

U Plus Ur Hand Tab

Strophe
e----|-------------------|
b----|-------------------|
gó---|-------------------|
d-2--|------5-5-2-2------|
a-2--|------3-5-2-2------|
E-0--|------3---0-0------|

[ Tab from: https://www.guitartabs.cc/tabs/p/pink/u_plus_ur_hand_tab.html ]
Refrain
e-----------------------------------------|
b-----------------------------------------|
g-----------------------------------------|
d-2-5-5-7-2---5-5-7-7-2---5-5-5-7-2-------|
a-2-3-5-5-2---3-5-5-7-2---5-3-5-5-2-------|
E-0---3---0-----3---5-0---7---3---0-------|