Pink - This Is How It Goes Down Chords & Tabs

 

This Is How It Goes Down Chords & Tabs

Pink Chords & Tabs

Version: 1 Type: Tab

This Is How It Goes Down Tab

   
-- Pink  This is how it goes down --

standard tuning EADGBE

tabbed by x-tasha-x

Intro:
guitar 1
E||---------------------|  |----------------| 
B||---------------------|  |----------------| 
G||-77--1010--55--3-3---|x3|-------10-------| 
D||-77--1010--55--3-3---|  |-8888--10--1010-| 
A||-55--8-8---33--1-1---|  |-8888--8---1010-| 
E||---------------------|  |-6666------8-8--| 

guitar 2
    Dm   F   C   Bb           Bb   F   C
E||-11--1-1--00--1-1----|  |-1111--1--0-0--| 
B||-33--1-1--11--3-3----|  |-3333--1--1-1--| 
G||-22--2-2--00--3-3----|x3|-3333--2--0-0--| 
D||-00--3-3--22--3-3----|  |-3333--3--2-2--| 
A||-----3-3--33--1-1----|  |-1111--3--3-3--| 
E||-----1-1-------------|  |-------1-------| 


Verse:
guitar 1 x2
E||---------------------|  |----------------| 
B||---------------------|  |----------------| 
G||-77--1010--55--3-3---|x3|-------10-------| 
D||-77--1010--55--3-3---|  |-8888--10--1010-| 
A||-55--8-8---33--1-1---|  |-8888--8---1010-| 
E||---------------------|  |-6666------8-8--| 

guitar 2 
E||---------------------|  |-g--s-----------| |---------------------|
B||---------------------|  |---u--i---------| |---------------------|
G||---------------------|x3|-----i--l-------| |---------------------|x3
D||---------------------|  |-------t--e-----| |---------------------|
A||-55-7-8---33-2-1-----|  |---------a--n---| |-55-7-8---33-2-1-----|
E||---------------------|  |-----------r--t-| |---------------------|

then:
   Bb   F   C
|-1111--1--0-0--| 
|-3333--1--1-1--|
|-3333--2--0-0--| 
|-3333--3--2-2--| 
|-1111--3--3-3--|
|-------1-------|


Chorus: 
guitar 1 x2
E||------------------|  |----------------| 
B||------------------|  |----------------| 
G||-77--10---55--3---|x3|-------10-------| 
D||-77--10---55--3---|  |-8888--10--1010-| 
A||-55--8----33--1---|  |-8888--8---1010-| 
E||------------------|  |-6666------8-8--| 

[ Tab from: https://www.guitartabs.cc/tabs/p/pink/this_is_how_it_goes_down_tab.html ]
guitar 2 x2                                                Bb   F   C
E||----------------------------------18-18-18-18-18--|  |-1111--1--0-0--| 
B||-15-15-15-18-18-18-18-18-20-20-20-----------------|  |-3333--1--1-1--|
G||--------------------------------------------------|x3|-3333--2--0-0--| 
D||--------------------------------------------------|  |-3333--3--2-2--|
A||--------------------------------------------------|  |-1111--3--3-3--|
E||--------------------------------------------------|  |-------1-------|


Verse 2(same as verse 1)

CHORUS

Bridge:
guitar 1 x2
E||------------------|  |----------------| 
B||------------------|  |----------------| 
G||-77--10---55--3---|x3|-------10-------| 
D||-77--10---55--3---|  |-8888--10--1010-| 
A||-55--8----33--1---|  |-8888--8---1010-| 
E||------------------|  |-6666------8-8--| 

guitar 2 
E||-g----s-----------|  |-g--s-----------| 
B||---u----i---------|  |---u--i---------| 
G||-----i----l-------|x3|-----i--l-------| 
D||-------t----e-----|  |-------t--e-----| 
A||---------a----n---|  |---------a--n---| 
E||-----------r----t-|  |-----------r--t-| 

then:
guitar 2 x2                                                Bb   F   C
E||--------------------------------------------------|  |-1111--1--0-0--| 
B||-15-15-15-18-18-18-18-18--------------------------|  |-3333--1--1-1--|
G||-------------------------17-17-17-15-15-15-15-15--|x3|-3333--2--0-0--| 
D||--------------------------------------------------|  |-3333--3--2-2--|
A||--------------------------------------------------|  |-1111--3--3-3--|
E||--------------------------------------------------|  |-------1-------|


End with chorus: 
guitar 1 x2
E||------------------|  |----------------| 
B||------------------|  |----------------| 
G||-77--10---55--3---|x3|-------10-------| 
D||-77--10---55--3---|  |-8888--10--1010-| 
A||-55--8----33--1---|  |-8888--8---1010-| 
E||------------------|  |-6666------8-8--| 

guitar 2 x2                                                Bb   F   C
E||----------------------------------18-18-18-18-18--|  |-1111--1--0-0--| 
B||-15-15-15-18-18-18-18-18-20-20-20-----------------|  |-3333--1--1-1--|
G||--------------------------------------------------|x3|-3333--2--0-0--| 
D||--------------------------------------------------|  |-3333--3--2-2--|
A||--------------------------------------------------|  |-1111--3--3-3--|
E||--------------------------------------------------|  |-------1-------|