Pink - Funhouse Chords & Tabs

 

Funhouse Chords & Tabs

Pink Chords & Tabs

Version: 2 Type: Bass Tab

Funhouse Bass Tab

Funhouse

Intro/verse
G |---------------------------|
D |---------------------------|
A |---------------------------| 4
E |--0-7-8-7-07-555-7-5-0-3---|

Pre-chorus
G |-----------------------------------------|
D |-----------------------------------------|
A |------------7777-3333----------7777-3333-|
E |--3333-7777----------3333-7777-----------|
[ Tab from: https://www.guitartabs.cc/tabs/p/pink/funhouse_btab_ver_2.html ]
Chorus
G |--------------------------------------|
D |--------------------------------------|
A |-10-10-10-1010-10---------------------| 4
E |------------------8-8-8-10-1010-10----|

Intro/verse 4
Pre-chorus
Chorus 4
Intro/verse 1

G |---------------|
D |---------------|
A |---------------|
E |--0-7-8-7-07-5-|

Bridge
G |-------------------------|
D |-------------------------|
A |----77-66-55-44-33-2-0-2-|3
E |-00-----------------3----|


G |-------------------------|
D |-------------------------|
A |-------------------------|
E |-3-3-3-0-3-5-7--------7--|

(Gap)

Chorus 10