Piers Faccini - A Storm Is Going To Come Chords & Tabs

 

A Storm Is Going To Come Chords & Tabs

Piers Faccini Chords & Tabs

Version: 1 Type: Tab

A Storm Is Going To Come Tab

   
A storm is going to come Ė Piers Faccini


Tabbed by Aklex, some changes by PhilippeR

Verse

                                          
       e-|:------------|------------|---------------|---------------||
       B-|:-------3----|------3-----|-------1-------|-----0h1p0-----||
       G-|:----2----2--|---2----2---|---2-------2---|---0-----------||
       D-|:--0---------|-0----------|-3-------------|---------------||
       A-|:------------|------------|---------------|---------------||
       E-|:------------|------------|---------------|-3-------------||
 
       e-|-------------|------------|---------------|--------------:||
       B-|--------3----|------3-----|-----0h1p0-----|-----0h1p0----:||
       G-|-----2----2--|---2----2---|---2-----------|---0----------:||
       D-|---0---------|-0----------|-3-------------|--------------:||
       A-|-------------|------------|---------------|--------------:||
       E-|-------------|------------|---------------|-3------------:||

Interlude
               a             a             a
       e-|-------------|------------|---------------||
       B-|---1---1-----|-----1------|------1--------||
       G-|-------------|------------|---------------||
       D-|-----2---2---|---2----2---|---2-----2-----||
       A-|-------------|------------|---------------||
       E-|-------------|------------|---------------||

Refrain

Let your singing skills out ;)
( Iíve tried some chords and ended up with a random mixture of half and slightly muted 
C, D, Am7, G, F)


Verse 1.
Black crows circling up above
Crying out, do you hear that sound?
I never thought itíll come to this
Paradise raised to the ground

Verse 2.
Sometimes I donít sleep at night
I hear the wind in the morning trees
I wonder how my child will fair
With wars and bombs and thieves
[ Tab from: https://www.guitartabs.cc/tabs/p/piers_faccini/a_storm_is_going_to_come_tab.html ]
Int. 1
The thunder has begone

Verse 3.
Some are blind but choose to see
Flies into the truth they weave
Some put their trust in Faith
Some say I donít believe

Verse 4.
Each man unto himself
They're an island in a raging sea
With a boat to anchor or sail
(Aah) but to which will it lead

Int.2
The thunder has begone
(Verse x1)
The thunder has begone
(Interlude)
The thunder has begone
(Verse x1)

Ref.
And a storm is gonna come
A storm is gonna come 
A storm is gonna come 
A storm is gonna come 
A Storm Is Gonna Come

Verse 5.
Whoís the one that watching you
Who says your rights are wrong
When the preacher and the judge are lying
A change is coming, it wonít be long

Verse 6.
We may have burned the bridge too far
We may have run ourselves too far.
When you look into the mirror, friend
What is it that you want to ask?

Int.1
The thunder has been gone

Verse 7.
Dear father when you left me here
You lay your head in eternal sleep
You told me only love remains
Love is all we have to keep

Verse 1.
Black crows circling up above
Crying out, do you hear that sound?
I never thought itíll come to this
Paradise raised to the ground

Int.2
The thunder has begone
(Verse x1)
The thunder has begone
(Interlude)
The thunder has begone
(Verse x1)

Ref.
And a storm is gonna come (find a heaven, find a shelter)
A storm is gonna come (find a port, find a harbor)
A storm is gonna come (find a friend, find a lover)
A storm is gonna come (find a sister, find a brother)
And a storm is gonna come (find a heaven, find a shelter)
A storm is gonna come (find a port, find a harbor)
A storm is gonna come (find a friend, find a lover)
A storm is gonna come (find a sister, find a brother)
A Storm Is Gonna Come

Verse


Play Verse right after the last lyric verse in the chorus. Than play it for an outro 
calmly to the end. (try to find a guy with a harmonica =)

I hope it will help you...