Pierce The Veil - Just The Way You Are Bruno Mars Cover Chords & Tabs

 

Just The Way You Are Bruno Mars Cover Chords & Tabs

Pierce The Veil Chords & Tabs

Version: 1 Type: Bass Tab

Just The Way You Are Bruno Mars Cover Bass Tab

   
-------------------------------------------------------------------------------
                Just the Way You Are (Bruno Mars Cover)  Pierce the Veil
-------------------------------------------------------------------------------
Tabbed by: relientfoot
E-mail: rememberdefcow@Gmail.com

Tuning: Drop D (D A D G)

Intro
G|---------------------------------------------------------------------------|
D|--------------------3-2----------------------------------------------------|
A|------------------------1-/-8----1-3---------------------------------------|
D|----3------5-3-0---------------------3-------------------------------------|

Verse 1
      Her eyes, her eyes
G|---------------------------------------------------------------------------|
D|---------------------------------------------------------------------------|
A|---------------------------------------------------------------------------|
D|----33---------------------------------------------------------------------|

       Shes so beautiful  (These frets are 1s, not 11s.  Listen for rhythm.)
G|------------3-----------------------------------------------------------------|
D|-------------------------------3----------------------------------------------|
A|-8\11---1-1---11--1-1---------------------------------------------------------|
D|---------------------33---3-3---33-------333333333----------------------------|

       I know, I know (Start on 3, slide up octave to 15, then 14 at the end)
G|-------------------------------------------------------------------------------|
D|-------------------------------------------------------------------------------|
A|-----------------------------------------------------7/8\------8-7-------------|
D|---33333333333333333/15151515151515-14\00--0-0-----00---0---------10-8\--------|

       But every time she asks me  . . .  I say
G|---------------------------------------------------------------------------|
D|---------------------------------------------------------------------------|
A|---------------------------------------------------------------------------|
D|-------------------------------------33333333333333333---------------------|

Chorus
  Your face. . .
G|------------------------------------------------------------------------------|
D|------------------------------------------------------------------------------|
A|--888888888888777755555555555533331111111111111133----------------------------|
D|---------------------------------------------------333-33-33--333-33-33-------|
[ Tab from: https://www.guitartabs.cc/tabs/p/pierce_the_veil/just_the_way_you_are_bruno_mars_cover_btab.html ]
You smile. . .
G|--------------------------------------------------------------------------------|
D|--------------------------------------------------------------------------------|
A|-------------------------55555555/1212-1010-88-33-11131111111111133-----3/8|----|
D|33333333/1515151514141010------------------------------------------33333--------|

Verse 2
  Her lips . . .kiss                                     She's so beautiful. . .
G|---------------------------------------------------------------------------|
D|---------------3-----------------------------7-5---------------------------|
A|----------------3/5555555555553333555555555-----8-1------------------------|
D|-3-------3-----------------------------------------------------------------|

  I tell her every day. . .
G|---------------------------------------------------------------------------|
D|---------------------------------------------------------------------------|
A|--------------------------3/8--7--5--3--1-3--------------------------------|
D|-------------------33-3-3--------------------------------------------------|

 You know, you know. . .
G|--------------------------------------------------------------------------------|
D|--------------------------------------------------------------------------------|
A|----------------------------------3-111111111111/131313131313----88888888-------|
D|---3-3-3-3-3-3-3-2-0-0-0-0-0-0-0-----------------------------1010---------------|

Chorus
Your face. . .
G|------------------------------------------------------------------------------|
D|-----------------------------------3---3--------------------------------------|
A|-8888888888887777555555555555333311-111-111111133-----------------------------|
D|----------------------------------------------------333-33-33--333-33-33------|

You smile. . .                                                         Come on. . .
G|----------------------------------------------------------------------------------|
D|----------------------------------------------------------------------------------|
A|--------------------------55555555/1212-1010-88-33-111311111----------------------|
D|33333333/1515151514141010-----------------------------------------33333333333-----|

Bridge
The way you are. . .  (Match kick drum rhythm)
G|--------------------------------------------------------------------------------|
D|--------------------------------------------------------------------------------|
A|---------------------------------------1-11-11-1-11-11-1------------------------|
D|-3-33-33-3-33-3-33-33-0-00-00-0-00-00-------------------3-33-33-33-33-3-33------|

Final Chorus
. . .And when you smile. . .
G|---------------------------------------------------------------------------|
D|---------------------------------------------------------------------------|
A|--------------------------------------------3-1-0---1---1---1/3------------|
D|-------------33333333333333220--------0-3-------3--------------3-----------|




| /  slide up
| \  slide down
| h  hammer-on
| p  pull-off
| ~  vibrato
| +  harmonic
| x  Mute note
===============================================================================