Philmont - I Cant Stand To Fall Chords & Tabs

 

I Cant Stand To Fall Chords & Tabs

Philmont Chords & Tabs

Version: 1 Type: Bass Tab

I Cant Stand To Fall Bass Tab

   
-----------------------------------------------------------------------------
		I Canít Stand to Fall - Philmont	     
-----------------------------------------------------------------------------

Tuning: Standard

Intro
G|---------------------------------------------------------------------|
D|--2-2-2-2-2-2-2-2----------------------------------------------------|
A|------------------2-2-2-2-4-4-4-4-----------------22--222--222--222--|
E|----------------------------------0-0-0-0-2-2-2-2--------------------|

Verse
G|-----------------------------------|
D|-----------------------------------|
A|--2~-------------------------------|
E|------------22~------22~------22~--|

G|-------------------------------------------------------------------------|
D|-22--222--222--222-------------------------------------------------------|
A|-------------------22--222--222--222-44--444--444--444-------------------|
E|-------------------------------------------------------22--222--222--222-|

Chorus
G|---------------------------------------------------------------------|
D|--2-2-2-2-2-2-2-2----------------------------------------------------| x2
A|------------------2-2-2-2-4-4-4-4-----------------22--222--222--222--|
E|----------------------------------0-0-0-0-2-2-2-2--------------------|

Verse
G|-----------------------------------|
D|-----------------------------------|
A|--2~-------------------------------|
E|------------22~------22~------22~--|
[ Tab from: https://www.guitartabs.cc/tabs/p/philmont/i_cant_stand_to_fall_btab.html ]
G|-------------------------------------------------------------------------|
D|-22--222--222--222-------------------------------------------------------|
A|-------------------22--222--222--222-44--444--444--444-------------------|
E|-------------------------------------------------------22--222--222--222-|

Chorus
G|---------------------------------------------------------------------|
D|--2-2-2-2-2-2-2-2----------------------------------------------------| x2
A|------------------2-2-2-2-4-4-4-4-----------------22--222--222--222--|
E|----------------------------------0-0-0-0-2-2-2-2--------------------|

~no bass in bridge~

Chorus
G|-------------------------------------------------------------------------|
D|--------2-2----2-2-------------------------------------------------------| 
A|--2~------------------2-2-2-2-4-4-4-4-----------------22--222--222--222--|
E|--------------------------------------0-0-0-0-2-2-2-2--------------------|

G|---------------------------------------------------------------------|
D|--2-2-2-2-2-2-2-2----------------------------------------------------| x3
A|------------------2-2-2-2-4-4-4-4-----------------22--222--222--222--|
E|----------------------------------0-0-0-0-2-2-2-2--------------------|

Outro
G|------------------------|
D|------------------------|
A|--2~---4~---------------|
E|------------2~------00--|

Fun Little Song, Peace...

| /  slide up
| \  slide down
| h  hammer-on
| p  pull-off
| ~  let note ring
| +  harmonic
| x  Mute note
===============================================================================