Phil Collins - Easy Lover Chords & Tabs

 

Easy Lover Chords & Tabs

Phil Collins Chords & Tabs

Version: 2 Type: Bass Tab

Easy Lover Bass Tab

   
Song: Easy Lover
Artist: Phil Collins and Philip Bailey
Bassist: Nathan East
Album: Chinese Walls
Tempo: 130
Transcripted by Renata Jamberg

      Gb             Fm7                  Gb        Fm7 
G||--------|--------|--------|--------|--------|--------|
D||---4----|----4-3-|--------|--------|---4----|----4-3-|
A||--------|--------|--------|--------|--------|--------|
E||--------|--------|--------|--------|--------|--------|

   Db    Eb          Fm7           Bbm7Cm7        Fm7               Db   Eb
G|--------------||---------------|-------------|--------------|--------------||
D|------1---3---||--3-1---3-----|-----------3-|--3-1---3-----|-----1----3--||
A|-4------------||------3---3-2-|-1---3-3-----|------3-----4-|-------------||
E|--------------||---------------|-------------|--------------|--------------||

 "C" Fm7           Bbm7 Cm7        Fm7              Db   Eb
G||--------------|---------------|-------------|--------------|
D||--3-1---3-----|--------1---3--|-3-1---3-----|-----1----3---|
A||------3---3-2-|-1--3-3---3----|-----3-----4-|--------------|
E||--------------|---------------|-------------|--------------|

    Fm7           Bbm7 Cm7        Fm7               Db      Eb
G|---------------|-------------|--------------|--------------|
D|---3-1---3-----|-----------3-|--3-1---3-----|-----1----3---|
A|-------3---3-2-|-1---3-3-----|------3-----4-|--------------|
E|---------------|-------------|--------------|--------------|

     Fm7            Bbm7 Cm7        Fm7              Db    Eb
G|----------------|--------------|--------------|-------------|
D|---3-1---3------|-----------3--|--3-1---3-----|----1-----3--|
A|-------3--------|-1---3-3------|------3-----4-|-------------|
E|------------1-3-|--------------|--------------|-------------|

     Fm7               Bbm7 Cm7          Fm7
G|-------------------|----------------|----------------|
D|---3-1---3---------|-------------3--|----------------|
A|-------3--------0--|-1----3-3-------|----------------|
E|--------------4----|----------------|----------------|

     Db
G||---------------|-------------|------------|-------------|
D||--------------|-------------|------------|--------1--3-|
A||-4----3-4-----|-4---4--3--4-|---3-4------|-4---4-------|
E||---------------|-------------|------------|-------------|

    Fm7                                \1.____________|
G|-----------|-------------|-----------|--------------||
D|-31-3---1-|-3---3--1--3-|--31-3-----|-3---3-------||
A|---3------|-------------|----3------|--------3--4-||
E|-----------|-------------|-----------|--------------||
[ Tab from: https://www.guitartabs.cc/tabs/p/phil_collins/easy_lover_btab_ver_2.html ]
   Fm7           Bbm7          Cm7      Fm7      Bbm7          Cm7      Fm7
 \2.___________| "B"
G|-------------|-------------|----------------|--------------|----------------|
D|-3---3-------|-------------|-------3--------|--------------|-------3--------|
A|-------3-2-1-|-1-1-1-1-1-1-|-3-3-3----3-2-1-|--1-1-1-1-1-1-|-3-3-3----3-2-1-|
E|-------------|-------------|----------------|--------------|----------------|

   Bbm7      Cm7 Fm7     Gb                        Db  Eb
              \_To Coda|                        \_D.S. al Coda|
G|---------|-----------|-----------|-----------|---------|
D|---------|----3--333-|-4---------|-----------|---1---3-|
A|-1111111-|-333-------|-----------|--------4--|---------|
E|---------|-----------|-----------|-----------|---------|

\_Coda|  Gb                                Fm7
G|---------------------|---------------|----------------|----------------|
D|-------4-------------|---------4--3--|----------------|----------------|
A|---------------------|---------------|----------------|----------------|
E|---------------------|---------------|----------------|----------------|

         Gb                                Fm7                Db   Eb
G|---------------------|---------------|----------------|-------------|
D|-------4-------------|---------4--3--|----------------|-----1----3--|
A|---------------------|---------------|------------4---|-------------|
E|---------------------|---------------|----------------|-------------|

\_Guitar above "C"_|   Fm7           Bbm7 Cm7       Fm7        \_1.-3._____|
G|-----------------||--------------|--------------|------------|-----------||
D|-----------------||-3-1---3-----|--------1---3-|-3-1--3-----|---1----3-||
A|-----------------||-----3---3-2-|-1--3-3---3---|-----3----4-|----------||
E|-----------------||--------------|--------------|------------|-----------||

                 Bbm7          Cm7    Fm7     Bbm7          Cm7   Fm7 
\_4.___________| "B"
G|-------------|-------------|--------------|-------------|--------------|
D|----1--------|-------------|----3---------|-------------|----3---------|
A|-4-----3-2-1-|-1-1-1-1-1-1-|-333----3-2-1-|-1-1-1-1-1-1-|-333----3-2-1-|
E|-------------|-------------|--------------|-------------|--------------|

   Bbm7          Cm7   Fm7   Gb                       Db   Eb
G|-------------|-----------|---------|------------|----------|
D|-------------|----3--333-|-4-------|------------|----------|
A|-1-1-1-1-1-1-|-333-------|---------|---------4--|---1----3-|
E|-------------|-----------|---------|------------|----------|

                                                               \_fade out|
  \_________________________________________________________x10|
 "C"  Fm7            Bbm7 Cm7        Fm7              Db    Eb 
G||----------------|--------------|--------------|-------------||
D||--3-1---3------|-----------3--|--3-1---3-----|----1-----3-||
A||------3----3-2-|-1---3-3------|------3-----4-|------------||
E||----------------|--------------|--------------|-------------||