Peter Frampton - Baby I Love Your Way Chords & Tabs

 

Baby I Love Your Way Chords & Tabs

Peter Frampton Chords & Tabs

Version: 2 Type: Bass Tab

Baby I Love Your Way Bass Tab

   
Peter Frampton           
Baby I love your way

Tabber Note : Live version

Tabbed by Bruno Frenchy (brsosson@live.fr)

Intro (00:08)
|-----------|------------|-
|-----------|------------|-
|-7--5--3---|-2----(5)---|-
|-----------|----5-------|-                     

Part 1 (00:16)

|----------------|-----------|------------|---------------|-
|-5~-5\4--4\2--2-|--2--0-----|------------|------------5~-|-
|-------------2--|-2-----3---|-2-3--5-7-8-|-7/8-7/8--5----|-
|----------------|-----------|------------|---------------|-

|-------------|----------|---------------------|-
|-5\4--4\2--2-|--2--0----|---------------------|-
|----------2--|-2-----3--|-2-3--5-8--7-8-7-5---|-
|-------------|----------|-------------------9-|-                

|-----------|--9--7-------|-----------|-------------|-
|---9-------|-9----10-9-7-|-----------|-------------|-
|-7---9-8-7-|-------------|---------5-|-7/9-7/9-7---|-
|-----------|-------------|-5-5--7-8--|----------3~-|-

Chorus 

|--------------|------------|-
|--------------|------------|-
|-----5--3-2-0-|--3--3--2---|-
|-5-7----------|-3--3----3~-|-

|--------------|------------|
|--------------|------------|
|-----5--3-2-0-|--3--3--2---|
|-5-7----------|-3--3----3~-|
							
|--------------|------------|-
|---5----------|------------|-
|-5---5--3-2-0-|---3--3--2--|-
|--------------|--3--3------|-



Bridge 01:16

|----------------|----------|-------------|-
|-5~-5\4--4\2--2-|--2--0----|-------------|-
|-------------2--|-2-----3--|-2-3------5~-|-
|----------------|----------|------3-5----|-             


Part 2   (01:28)

|----------------|-----------|------------|---------------|-
|-5~-5\4--4\2--2-|--2--0-----|------------|------------5~-|-
|-------------2--|-2-----3---|-2-3--5-7-8-|-7/8-7/8--5----|-
|----------------|-----------|------------|---------------|-

|-------------|----------|---------------------|-
|-5\4--4\2--2-|--2--0----|---------------------|-
|----------2--|-2-----3--|-2-3--5-8--7-8-7-5---|-                   
|-------------|----------|-------------------9-|-

|-----------|--9--7-------|-----------|-------------|-
|---9-------|-9----10-9-7-|-----------|-------------|-
|-7---9-8-7-|-------------|---------5-|-7/9-7/9-7---|-
|-----------|-------------|-5-5--7-8--|----------3~-|-

Chorus

|--------------|------------|-
|--------------|------------|-
|-----5--3-2-0-|--3--3--2---|-
|-5-7----------|-3--3----3~-|-
[ Tab from: https://www.guitartabs.cc/tabs/p/peter_frampton/baby_i_love_your_way_btab_ver_2.html ]
|--------------|------------|
|--------------|------------|
|-----5--3-2-0-|--3--3--2---|
|-5-7----------|-3--3----3~-|                  

|--------------|------------|-
|---5----------|------------|-
|-5---5--3-2-0-|---3--3--2--|-
|--------------|--3--3------|-



Part 3 (02:29) (bridge with piano)

|----------------|-----------|------------|---------------|-
|-5~-5\4--4\2--2-|--2--0-----|------------|------------5~-|-
|-------------2--|-2-----3---|-2-3--5-7-8-|-7/8-7/8--5----|-
|----------------|-----------|------------|---------------|-

|-------------|----------|---------------------|-
|-5\4--4\2--2-|--2--0----|---------------------|-
|----------2--|-2-----3--|-2-3--5-8--7-8-7-5---|-
|-------------|----------|-------------------9-|-                 

|-----------|--9--7-------|-----------|--------------|-
|---9-------|-9----10-9-7-|-----------|-----------5~-|-
|-7---9-8-7-|-------------|---------5-|-7/9-7/9-7----|-
|-----------|-------------|-5-5--7-8--|--------------|-


Part 4 (03:09)

|--------------|-----------|------------|---------------|-
|--5\4--4\2--2-|--2--0-----|------------|------------5~-|-
|-----------2--|-2-----3---|-2-3--5-7-8-|-7/8-7/8--5----|-
|--------------|-----------|------------|---------------|-

|-------------|----------|---------------------|-
|-5\4--4\2--2-|--2--0----|---------------------|-
|----------2--|-2-----3--|-2-3--5-8--7-8-7-5---|-                
|-------------|----------|-------------------9-|-

|-----------|--9--7-------|-----------|-------------|-
|---9-------|-9----10-9-7-|-----------|-------------|-
|-7---9-8-7-|-------------|---------5-|-7/9-7/9-7---|-
|-----------|-------------|-5-5--7-8--|----------3~-|-



Final Chorus (03:49)

|--------------|------------|-
|--------------|------------|-
|-----5--3-2-0-|--3--3--2---|-  X3
|-5-7----------|-3--3----3~-|-

|--------------|------------|-
|---5----------|------------|-
|-5---5--3-2-0-|--3--3--2---|-   X3 
|--------------|-3--3----3~-|-


Epilog
|--------------|------------|-                     
|-5~-5\4--4\2--|-0---2------|-
|--------------|---3--------|-
|--------------|-------5--3-|-


End 04:41    				                       564 notes

| /   slide up
| \   slide down
| h   hammer-on
| p   pull-off
| ~   vibrato
| +   harmonic
| (.) soft note
| x   Mute note
| b   Bend
| pb  Pre-bend
| br  Bend release
| pbr Pre-bend release
| brb Bend release bend