Pete Murray - Georges Helper Chords & Tabs

 

Georges Helper Chords & Tabs

Pete Murray Chords & Tabs

Version: 1 Type: Bass Tab

Georges Helper Bass Tab

   
Hey, just thought i'd put this bass tab up cause the other ones dont seem to sound right 
me. Fairly simple song but the riff is fun to play. Theres some variation throughout 
just listen to the song or make it up as you go. oh, and this is my first tab too :-)

Hammer = h
Slide up = >
Slide down = <

INTRO & CHORUS
 E |-------------------------------------------|
 B |-------------------------------------------|
 G |-------------------------------------------|
 D |-------------------------------------------|
 A |-12--12----12h14h12---10--10-109h10-------|
 E |---------14--------14----------------5-6-7-|

 E |--------------------------------------|
 B |--------------------------------------|
 G |--------------------------------------|
 D |--------------------------------------|
 A |------------------------------9-10-11-|
 E |-8--8---0-3-4-10--10-10-9h10---------|
[ Tab from: https://www.guitartabs.cc/tabs/p/pete_murray/georges_helper_btab.html ]
 E |--------------------------------------|
 B |--------------------------------------|
 G |--------------------------------------|
 D |-12->16-14-<9-<7----------------------|
 A |-----------------9-10----109h10------|
 E |--------------------------------5-6-7-|

 E |--------------------------------------|
 B |--------------------------------------|
 G |--------------------------------------|
 D |--------------------------------------|
 A |--------------------------------------|
 E |-8--8---0-3-4-10(hold)----------------|

VERSE (from second verse)

 E |------------------------------------------------|
 B |------------------------------------------------|
 G |------------------------------------------------|
 D |------------------------------------------------|
 A |--5-5---------3-3---------5-5---------3-3-------|
 E |--------5-5---------3-3---------5-5---------3-3-|

Enjoy!