Pearl Jam - Sad Chords & Tabs

 

Sad Chords & Tabs

Pearl Jam Chords & Tabs

Version: 1 Type: Bass Tab

Sad Bass Tab

---------------------------------------------------------------------------
			     SAD  Pearl Jam
---------------------------------------------------------------------------

Tabbed By : Ruslan
e-mail: rycho_r(at)tlen.pl



intro 

G|------------------------------|------------------------------|
D|------------------------------|------------------------------|
A|------------------------------|------------------------------|  
E|-10-10-10---------------------|--13-13-13--------------------|

G|------------------------------|------------------------------|
D|------------------------------|------------------------------|
A|------------------------------|------------------------------|  
E|-10-10-10---10---10-10--------|--13-13---13-13----5--5-5-5---|

G|------------------------------|------------------------------|
D|------------------------------|------------------------------|
A|------------------------------|------------------------------|  
E|-10-10-10---10---10-10--------|--13-13---13-13----5--5-5-5---|



verse (x2)

G|------------------------------|------------------------------|
D|------------------------------|------------------------------|
A|------------------------------|------------------------------|  
E|-10-10-10---10---10-10--------|--13-13---13-13----5--5-5-5---|

G|------------------------------|------------------------------|
D|------------------------------|------------------------------|
A|------------------------------|------------------------------|  
E|-10-10-10---10---10-10--------|--13-13---13-13----5--5-5-5---|


chorus

G|------------------------------|------------------------------|
D|------------------------------|------------------------------|
A|---5-5--5-5-5--5-5-5-5-5----|---8-8--8-8-8-----------------|  x2
E|------------------------------|-----------------5-5-5-5-5---|
[ Tab from: https://www.guitartabs.cc/tabs/p/pearl_jam/sad_btab.html ]
G|------------------------------|------------------------------|
D|------------------------------|------------------------------|
A|------------------------------|---5-5--5-5-5----8-8--8-8-8---|  x2
E|---6-6--6-6-6---5-5-5-5-5----|------------------------------|

G|------------------------------|
D|------------------------------|
A|------------------------------|
E|---6-6--6-6-6---5~------------|



verse x2

chorus x1



bridge

G|------------------------------------------------------------------|
D|------------------------------------------------------------------|
A|--5-5-5----5-3----3-3--3-3-3---------------3-3-3-3-3-------------| x2
E|---------------5---------------5-5--5-5-5-------------5-5-5-5-5--|

G|----------------------------|
D|----------------------------|
A|--3-3-3-3-3----------------|
E|----------------5-5-5-5-5--|


solo

G|------------------------------|------------------------------|
D|------------------------------|------------------------------|
A|---8-8--8-8-8--7-7-7-7-7----|------------------------------|  x2
E|------------------------------|--5-5-5-5-5-----8-8-8-8-8---|

G|------------------------------|
D|------------------------------|
A|---8-8--8-8-8--7~------------| 
E|------------------------------|


outro

G|------------------------------|------------------------------|
D|------------------------------|------------------------------|
A|---5-5--5-5-5--5-5-5-5-5----|---8-8--8-8-8-----------------|  x1
E|------------------------------|-----------------5-5-5-5-5---|

G|------------------------------|------------------------------|
D|------------------------------|------------------------------|
A|------------------------------|---5-5--5-5-5----8-8--8-8-8---|  x2
E|---6-6--6-6-6---5-5-5-5-5----|------------------------------|

G|------------------------------|
D|------------------------------|
A|------------------------------|
E|---6-6--6-6-6---5~------------|