Pearl Jam - Corduroy Live Chords & Tabs

 

Corduroy Live Chords & Tabs

Pearl Jam Chords & Tabs

Version: 1 Type: Bass Tab

Corduroy Live Bass Tab

Written By Matt Merlin (masterozzy_69@hotmail.com)

Based off the Live on Two Legs Version
Youtube it if you don't have it, it's up there.

Guitar Intro (will vary)
Last time bass comes in
--------------------------------------------------|
--------------------------------------------------|
-7----7----7----7----7----7----7----7-------------|
--------------------------------------------------|

--------------------------------------------------|
--------------------------------------------------|
-7----7----7----7----7----7----7----7-------------|
--------------------------------------------------|

---------------------------------------------------|
---------------------------------------------------|
-0----0----0----0----0----0----0----3----3---3---3-|
---------------------------------------------------|


--------------------------------------------------|
--------------------------------------------------|
-3---3---3----------------------------------------|
--------------------------------------------------|

Verse4x
----------------------------------------------------|
-X--------------------------------------------------|
-X--8-8-8--7----------------------------------------|
-------------3--3-3--33-3-3-3/----------------------|

5th Time
--------------------------------------------------|
-X------------------------------------------------|
-X--8-8-8--7--------------------------------------|
-------------3--3-3-------------------------------|
[ Tab from: https://www.guitartabs.cc/tabs/p/pearl_jam/corduroy_live_btab.html ]
Chorus8x
--------------------------------------------------|
--------------------------------------------------|
--3333--2--2-2--0---------------------------------|
------------------3--33---------------------------|
8th Time Chorus Add 1/4ís on the end
--------------------------------------------------|
--------------------------------------------------|
--3333--2--2-2--0---------------------------------|
------------------3--3--3--3----------------------|

Breakdown

 16x   16x
-----|-----|
-----|-----|
--2--|--3--|
-----|-----|

2nd time (Switch between the 2 whenever)
--------------------------------------------------|
--------------------------------------------------|
--0h2-2-----0h22--2-0-2-3--2--0--0--0--3----------|
--------0-3---------------------------------------|

Last Time
 16x   12x
-----|-----|
-----|-----|
--2--|--3--|
-----|-----|

Chorus6x

On 6th itís shortened.
--------------------------------------------------|
--------------------------------------------------|
--3333--2--2-2-0(rest)----------------------------|
--------------------------------------------------|

Verse 5x




5th Time    Breakdown2 sort of like the intro
           Repeat3x
----------|---------------------------------------|
-X--------|---------------------------------------|
-X-8-8-8--|-7--7--777---7--7--7777----------------|
----------|---------------------------------------|

--------------|
--------------|
--0-----0--3--|
--------------|

4th time
 16x   7x   9x
-----|----|----|
-----|----|----|
-7---|-0--|-3--|
-----|----|----|

Solo Riffs
Can use the riff above or this is a good one from
the live version.

------------------------------2-------------------|
-----------------5--------------------------------|
-----7-7---7-5-7---7---0--0-0---0-----------------|
---0-----0----------------------------------------|

--------------------------------------------------|
--------------------------------------------------|
--3--2--0-----------------------------------------|
-----------3--------------------------------------|

There are some other variations used off of the low E and G to bring it up the A.