Paul Weller - From The Floorboards Up Chords & Tabs

 

From The Floorboards Up Chords & Tabs

Paul Weller Chords & Tabs

Version: 4 Type: Tab

From The Floorboards Up Tab

----------------------------------------------------------------------------

                      Paul Weller- From The Floorboards Up

----------------------------------------------------------------------------

Tabbed By- ryan96skyblue
Email- rwalter96cov@googlemail.com

Unlike alot of other tabs, it didn't take me that long
to figure this out, it is quite simple and there aren't
many chords.

Intro:

E|-x-x-x-x-x-x-x-x-x-x-x-x-x-x-x-x----------------------|
A|-7-7-7-7-8-8-8-8-7-7-7-7-8-8-8-8----------------------|
D|-9-9-9-9-101010109-9-9-9-10101010---------------------|
G|-9-9-9-9-101010109-9-9-9-10101010---------------------|
B|-x-x-x-x-x-x-x-x-x-x-x-x-x-x-x-x----------------------|
e|-x-x-x-x-x-x-x-x-x-x-x-x-x-x-x-x----------------------|

Verse One:

E|-x-x-x-x--x-x-x-x--5-5-5-5-8-8-8-8---------------------|
A|-7-7-7-7--10101010-7-7-7-7-10101010--------------------|
D|-9-9-9-9--12121212-7-7-7-7-10101010--------------------|
G|-9-9-9-9--12121212-x-x-x-x-x-x-x-x---------------------|
B|-x-x-x-x--x-x-x-x--x-x-x-x-x-x-x-x---------------------|
e|-x-x-x-x--x-x-x-x--x-x-x-x-x-x-x-x---------------------|

E|-x-x-x-x-x-x-x-x---------------------------------------|
A|-7-7-7-7-8-8-8-8---------------------------------------|
D|-9-9-9-9-10101010--------------------------------------|
G|-9-9-9-9-10101010--------------------------------------|
B|-x-x-x-x-x-x-x-x---------------------------------------|
e|-x-x-x-x-x-x-x-x---------------------------------------|

Iíve got a feeling
From the floorboards up
Call it a calling
If you like that touch
Call it what you will
I really donít care too much

Verse Two:

E|-x-x-x-x--x-x-x-x--5-5-5-5-8-8-8-8--------------------|
A|-7-7-7-7--10101010-7-7-7-7-10101010-------------------|
D|-9-9-9-9--12121212-7-7-7-7-10101010-------------------|
G|-9-9-9-9--12121212-x-x-x-x-x-x-x-x--------------------|
B|-x-x-x-x--x-x-x-x--x-x-x-x-x-x-x-x--------------------|
e|-x-x-x-x--x-x-x-x--x-x-x-x-x-x-x-x--------------------|

Iíve got a feeling
And I know itís right
I get it most evenings
If not every night
It sings in the air
And dances like candle light

E|-x-x-x-x-x-x-x-x-x-x-x-x-x-x-x-x----------------------|
A|-7-7-7-7-8-8-8-8-7-7-7-7-8-8-8-8----------------------|
D|-9-9-9-9-101010109-9-9-9-10101010---------------------|
G|-9-9-9-9-101010109-9-9-9-10101010---------------------|
B|-x-x-x-x-x-x-x-x-x-x-x-x-x-x-x-x----------------------|
e|-x-x-x-x-x-x-x-x-x-x-x-x-x-x-x-x----------------------|

Chorus:

E|-5-5-5-5-8-8-8-8--------------------------------------|
A|-7-7-7-7-10101010-------------------------------------|
D|-7-7-7-7-10101010-------------------------------------|
G|-x-x-x-x-x-x-x-x--------------------------------------|
B|-x-x-x-x-x-x-x-x--------------------------------------|
e|-x-x-x-x-x-x-x-x--------------------------------------|

E|-x-x-x-x-x-x-x-x--------------------------------------|
A|-7-7-7-7-8-8-8-8--------------------------------------|
D|-9-9-9-9-10101010-------------------------------------|
G|-9-9-9-9-10101010-------------------------------------|
B|-x-x-x-x-x-x-x-x--------------------------------------|
e|-x-x-x-x-x-x-x-x--------------------------------------|


E|-5-5-5-5-8-8-8-8--------------------------------------|
A|-7-7-7-7-10101010-------------------------------------|
D|-7-7-7-7-10101010-------------------------------------|
G|-x-x-x-x-x-x-x-x--------------------------------------|
B|-x-x-x-x-x-x-x-x--------------------------------------|
e|-x-x-x-x-x-x-x-x--------------------------------------|

E|-x-x-x-x-x-x-x-x-x-x-x-x-x-x-x-x----------------------|
A|-7-7-7-7-8-8-8-8-7-7-7-7-8-8-8-8----------------------|
D|-9-9-9-9-101010109-9-9-9-10101010---------------------|
G|-9-9-9-9-101010109-9-9-9-10101010---------------------|
B|-x-x-x-x-x-x-x-x-x-x-x-x-x-x-x-x----------------------|
e|-x-x-x-x-x-x-x-x-x-x-x-x-x-x-x-x----------------------|

When we play, we play, we play
Mama, from the floorboards up
When we dance, we dance, we dance
Papa, from the floorboards up
When we sway, we sway as one
From the floorboards up
From the floorboards up

Verse Three:


E|-x-x-x-x--x-x-x-x--5-5-5-5-8-8-8-8---------------------|
A|-7-7-7-7--10101010-7-7-7-7-10101010--------------------|
D|-9-9-9-9--12121212-7-7-7-7-10101010--------------------|
G|-9-9-9-9--12121212-x-x-x-x-x-x-x-x---------------------|
B|-x-x-x-x--x-x-x-x--x-x-x-x-x-x-x-x---------------------|
e|-x-x-x-x--x-x-x-x--x-x-x-x-x-x-x-x---------------------|

E|-x-x-x-x-x-x-x-x---------------------------------------|
A|-7-7-7-7-8-8-8-8---------------------------------------|
D|-9-9-9-9-10101010--------------------------------------|
G|-9-9-9-9-10101010--------------------------------------|
B|-x-x-x-x-x-x-x-x---------------------------------------|
e|-x-x-x-x-x-x-x-x---------------------------------------|
[ Tab from: https://www.guitartabs.cc/tabs/p/paul_weller/from_the_floorboards_up_tab_ver_4.html ]
I get a feeling
From the walls and chairs
They tell me of the things that
Have always been there
And all that is not
Will have to go back to dust

Chorus:

E|-5-5-5-5-8-8-8-8--------------------------------------|
A|-7-7-7-7-10101010-------------------------------------|
D|-7-7-7-7-10101010-------------------------------------|
G|-x-x-x-x-x-x-x-x--------------------------------------|
B|-x-x-x-x-x-x-x-x--------------------------------------|
e|-x-x-x-x-x-x-x-x--------------------------------------|

E|-x-x-x-x-x-x-x-x--------------------------------------|
A|-7-7-7-7-8-8-8-8--------------------------------------|
D|-9-9-9-9-10101010-------------------------------------|
G|-9-9-9-9-10101010-------------------------------------|
B|-x-x-x-x-x-x-x-x--------------------------------------|
e|-x-x-x-x-x-x-x-x--------------------------------------|


E|-5-5-5-5-8-8-8-8--------------------------------------|
A|-7-7-7-7-10101010-------------------------------------|
D|-7-7-7-7-10101010-------------------------------------|
G|-x-x-x-x-x-x-x-x--------------------------------------|
B|-x-x-x-x-x-x-x-x--------------------------------------|
e|-x-x-x-x-x-x-x-x--------------------------------------|

E|-x-x-x-x-x-x-x-x-x-x-x-x-x-x-x-x----------------------|
A|-7-7-7-7-8-8-8-8-7-7-7-7-8-8-8-8----------------------|
D|-9-9-9-9-101010109-9-9-9-10101010---------------------|
G|-9-9-9-9-101010109-9-9-9-10101010---------------------|
B|-x-x-x-x-x-x-x-x-x-x-x-x-x-x-x-x----------------------|
e|-x-x-x-x-x-x-x-x-x-x-x-x-x-x-x-x----------------------|

When we play, we play, we play
Mama, from the floorboards up
When we dance, we dance, we dance
Papa, from the floorboards up
When we sway, we sway as one
From the floorboards up
From the floorboards up


E|-x-x-x-x-x-x-x-x-x-x-x-x-x-x-x-x----------------------|
A|-7-7-7-7-8-8-8-8-7-7-7-7-8-8-8-8----------------------|
D|-9-9-9-9-101010109-9-9-9-10101010---------------------|
G|-9-9-9-9-101010109-9-9-9-10101010---------------------|
B|-x-x-x-x-x-x-x-x-x-x-x-x-x-x-x-x----------------------|
e|-x-x-x-x-x-x-x-x-x-x-x-x-x-x-x-x----------------------|

Verse Four:


E|-x-x-x-x--x-x-x-x--5-5-5-5-8-8-8-8---------------------|
A|-7-7-7-7--10101010-7-7-7-7-10101010--------------------|
D|-9-9-9-9--12121212-7-7-7-7-10101010--------------------|
G|-9-9-9-9--12121212-x-x-x-x-x-x-x-x---------------------|
B|-x-x-x-x--x-x-x-x--x-x-x-x-x-x-x-x---------------------|
e|-x-x-x-x--x-x-x-x--x-x-x-x-x-x-x-x---------------------|

E|-x-x-x-x-x-x-x-x---------------------------------------|
A|-7-7-7-7-8-8-8-8---------------------------------------|
D|-9-9-9-9-10101010--------------------------------------|
G|-9-9-9-9-10101010--------------------------------------|
B|-x-x-x-x-x-x-x-x---------------------------------------|
e|-x-x-x-x-x-x-x-x---------------------------------------|

Iíve got a feeling
From the floorboards up
Call it a calling
If you like that touch
Call it what you will
I really donít care too much

(Pause)

Chorus:

E|-5-5-5-5-8-8-8-8--------------------------------------|
A|-7-7-7-7-10101010-------------------------------------|
D|-7-7-7-7-10101010-------------------------------------|
G|-x-x-x-x-x-x-x-x--------------------------------------|
B|-x-x-x-x-x-x-x-x--------------------------------------|
e|-x-x-x-x-x-x-x-x--------------------------------------|

E|-x-x-x-x-x-x-x-x--------------------------------------|
A|-7-7-7-7-8-8-8-8--------------------------------------|
D|-9-9-9-9-10101010-------------------------------------|
G|-9-9-9-9-10101010-------------------------------------|
B|-x-x-x-x-x-x-x-x--------------------------------------|
e|-x-x-x-x-x-x-x-x--------------------------------------|


E|-5-5-5-5-8-8-8-8--------------------------------------|
A|-7-7-7-7-10101010-------------------------------------|
D|-7-7-7-7-10101010-------------------------------------|
G|-x-x-x-x-x-x-x-x--------------------------------------|
B|-x-x-x-x-x-x-x-x--------------------------------------|
e|-x-x-x-x-x-x-x-x--------------------------------------|

E|-x-x-x-x-x-x-x-x-x-x-x-x-x-x-x-x----------------------|
A|-7-7-7-7-8-8-8-8-7-7-7-7-8-8-8-8----------------------|
D|-9-9-9-9-101010109-9-9-9-10101010---------------------|
G|-9-9-9-9-101010109-9-9-9-10101010---------------------|
B|-x-x-x-x-x-x-x-x-x-x-x-x-x-x-x-x----------------------|
e|-x-x-x-x-x-x-x-x-x-x-x-x-x-x-x-x----------------------|

E|-x-x-x-x-x-x-x-x---------------------------------------|
A|-7-7-7-7-8-8-8-8---------------------------------------|
D|-9-9-9-9-10101010--------------------------------------|
G|-9-9-9-9-10101010--------------------------------------|
B|-x-x-x-x-x-x-x-x---------------------------------------|
e|-x-x-x-x-x-x-x-x---------------------------------------|

When we play, we play, we play
Mama, from the floorboards up
When we dance, we dance, we dance
Papa, from the floorboards up
When we sway, we sway as one
From the floorboards up
From the floorboards up
From the floorboards up

Repeat intro to end, please rate and comment.