Paul Gilbert - Down To Mexico Chords & Tabs

 

Down To Mexico Chords & Tabs

Paul Gilbert Chords & Tabs

Version: 1 Type: Bass Tab

Down To Mexico Bass Tab

ok in this song all the words are the same so ive labelled the different parts as chorus and verse
to make it easier to read and brake up

Intro: (after guitar has done the same)
G-----5^-5^-5^-3---5^-5^-5^-3---------3-----5^-5^-5^-3---5^-5^-5^-3-------3-----3-----3-3--|
D----------------5------------5--3--5----5-------------5------------5-3h5---3h5---3h5------|
A------------------------------------------------------------------------------------------|
E-12\--------------------------------------------------------------------------------------|

G5^-5^-5^-3---5^-5^-5^-3---------3----------10h12-----10h12-----10h12-----10h12-15-15-15-12-------|
D-----------5------------5--3--5----5--10h12-----10h12-----10h12-----10h12------------------15----|
A-------------------------------------------------------------------------------------------------|
E----------------------------------------------------------------------------------------------12\|

Verse:
G--------------------------------------------------------------------|
D--------------------------------------------------------------------|
A-----------------3-3-3-3-------------------------3-3-3-3------------|
E-3-3-3-3-1-1-1-1---------3-3-3-3-3-3-3-3-1-1-1-1---------3-3/12\----|   X2

G-------------------------------------------------------|
D-----------------------------5--5--5-5-4-3-------------|
A-3--3--3-3-3-4-5--5--5-5-4-3---------------5--5--5-4-3-|
E-------------------------------------------------------|

G-----------------------------------------------------------------|
D-----------------------------------------------------------------|
A-----------------3-3-3-3-------------------------3-3-3-3---------|
E-3-3-3-3-1-1-1-1---------3-3-3-3-3-3-3-3-1-1-1-1---------3-3/12\-|

Chorus:
G-----5^-5^-5^-3---5^-5^-5^-3---------3-----5^-5^-5^-3---5^-5^-5^-3-------3-----3-----3-3--|
D----------------5------------5--3--5----5-------------5------------5-3h5---3h5---3h5------|
A------------------------------------------------------------------------------------------|
E-12\--------------------------------------------------------------------------------------|

G5^-5^-5^-3---5^-5^-5^-3---------3----------10h12-----10h12-----10h12-----10h12-15-15-15-12-------|
D-----------5------------5--3--5----5--10h12-----10h12-----10h12-----10h12------------------15----|
A-------------------------------------------------------------------------------------------------|
E----------------------------------------------------------------------------------------------12\|
[ Tab from: https://www.guitartabs.cc/tabs/p/paul_gilbert/down_to_mexico_btab.html ]
Verse:
G--------------------------------------------------------------------|
D--------------------------------------------------------------------|
A-----------------3-3-3-3-------------------------3-3-3-3------------|
E-3-3-3-3-1-1-1-1---------3-3-3-3-3-3-3-3-1-1-1-1---------3-3/12\----|   X2

G-------------------------------------------------------|
D-----------------------------5--5--5-5-4-3-------------|
A-3--3--3-3-3-4-5--5--5-5-4-3---------------5--5--5-4-3-|
E-------------------------------------------------------|

G-----------------------------------------------------------------|
D-----------------------------------------------------------------|
A-----------------3-3-3-3-------------------------3-3-3-3---------|
E-3-3-3-3-1-1-1-1---------3-3-3-3-3-3-3-3-1-1-1-1---------3-3/12\-|

Bridge:
G-----------------------------------------------|
D-----------------------------------------------|
A-7-7-5---7-7-5---7-7-5---------7-7-5---7-7-5---|
E-------7-------7-------7-3--5--------7-------7-|(pause for guitar fill)   X4

Chorus:
G-----5^-5^-5^-3---5^-5^-5^-3---------3-----5^-5^-5^-3---5^-5^-5^-3-------3-----3-----3-3--|
D----------------5------------5--3--5----5-------------5------------5-3h5---3h5---3h5------|
A------------------------------------------------------------------------------------------|
E-12\--------------------------------------------------------------------------------------|

G5^-5^-5^-3---5^-5^-5^-3---------3----------10h12-----10h12-----10h12-----10h12-15-15-15-12-------|
D-----------5------------5--3--5----5--10h12-----10h12-----10h12-----10h12------------------15----|
A-------------------------------------------------------------------------------------------------|
E----------------------------------------------------------------------------------------------12\|

Verse:
G--------------------------------------------------------------------|
D--------------------------------------------------------------------|
A-----------------3-3-3-3-------------------------3-3-3-3------------|
E-3-3-3-3-1-1-1-1---------3-3-3-3-3-3-3-3-1-1-1-1---------3-3/12\----|   X2

G-------------------------------------------------------|
D-----------------------------5--5--5-5-4-3-------------|
A-3--3--3-3-3-4-5--5--5-5-4-3---------------5--5--5-4-3-|
E-------------------------------------------------------|

G-----------------------------------------------------------------|
D-----------------------------------------------------------------|
A-----------------3-3-3-3-------------------------3-3-3-3---------|
E-3-3-3-3-1-1-1-1---------3-3-3-3-3-3-3-3-1-1-1-1---------3-3/12\-|

Bridge:
G-----------------------------------------------|
D-5-5-3---5-5-3---5-5-3---------5-5-3---5-5-3---|
A-------5-------5-------5----3--------5-------5-|
E-------------------------6---------------------| (pause for guitar fill)  X4

Outro:
G--------------------------------|
D--------------------------------|
A--------------------------------|
E-0----1----3-3-3-3-1-5-3--3/12\-|

any questions? just comment and ill get back to you :)