Patti Smith - Because The Night Chords & Tabs

 

Because The Night Chords & Tabs

Patti Smith Chords & Tabs

Version: 2 Type: Bass Tab

Because The Night Bass Tab

   
                            BECAUSE THE NIGHT  PATTI SMITH
                               tabbed by Il Poro Savo

I've found some good tab for this song on the web but I had to spend
so much time to figure timing out, so I hope my tab will be clear 
about timing. Enjoy it!!

No bass during intro

Verse 1
G-----------------|----------------|----------------|---------------|
D-----------------|----------------|----------------|---------------|
A-----------------|5---5-----------|2-2-------------|----2----------|
E-3-----5---------|--------5-------|------3-----3-3-|--------5------|
  1 a 2 a 3 a 4 a  1 a 2 a 3 a 4 a  1 a 2 a 3 a 4 a  1 a 2 a 3 a 4 a

G-----------------|----------------|----------------|---------------|
D-----------------|----------------|----------------|---------------|
A-5-5---5---------|----------------|3-3---3-3-------|2-2---2-2------|
E-----------------|3---3---5-------|----------------|---------------|
  1 a 2 a 3 a 4 a  1 a 2 a 3 a 4 a  1 a 2 a 3 a 4 a  1 a 2 a 3 a 4 a

G-----------------|----------------|
D-----------------|----------------|
A-----------------|----------------|
E-2-2-2-2-2-2-2-2-|2-2-2-2-2-2-2-2-|
  1 a 2 a 3 a 4 a  1 a 2 a 3 a 4 a  

Chorus (x4)
G-----------------|----------------|
D-----------------|----------------|
A-2-2-------------|----------2-----|
E-------3-3-----3-|3---5---5-------|
  1 a 2 a 3 a 4 a  1 a 2 a 3 a 4 a  

Verse 2 (x4)
G-----------------|----------------|
D-----------------|----------------|
A-2---------------|--------2-------|
E-------3-3-------|----5-----------|
  1 a 2 a 3 a 4 a  1 a 2 a 3 a 4 a  

Verse 1

Chorus
[ Tab from: https://www.guitartabs.cc/tabs/p/patti_smith/because_the_night_btab_ver_2.html ]
Solo
G-----------------|----------------|----------------|---------------|
D-----------------|----------------|----------------|---------------|
A-----------------|5---5-----------|2-2-------------|----2----------|
E-3-----5---------|--------5-------|------3-----3-3-|--------5------|
  1 a 2 a 3 a 4 a  1 a 2 a 3 a 4 a  1 a 2 a 3 a 4 a  1 a 2 a 3 a 4 a

G-----------------|----------------|----------------|---------------|
D-----------------|----------------|----------------|---------------|
A-5-5---5---------|----------------|3-3-3-3-3-3-3-3-|3-3-3-3-3-3-3-3|
E-----------------|3---3---5-------|----------------|---------------|
  1 a 2 a 3 a 4 a  1 a 2 a 3 a 4 a  1 a 2 a 3 a 4 a  1 a 2 a 3 a 4 a

Bridge
G-----------------|----------------|----------------|---------------|
D-----------------|----------------|----------------|---------------|
A-5-------------5-|5---------------|2-------------5-|5--------------|
E-------5-5-------|------5-5---5---|------5-5-------|------5-5---5--|
  1 a 2 a 3 a 4 a  1 a 2 a 3 a 4 a  1 a 2 a 3 a 4 a  1 a 2 a 3 a 4 a

G-----------------|----------------|----------------|---------------|
D-----------------|----------------|----------------|---------------|
A-2-------------5-|5-----------2---|------5-5-------|---------------|
E-------5-5-------|------5-5-------|3-------------3-|3-----3-3------|
  1 a 2 a 3 a 4 a  1 a 2 a 3 a 4 a  1 a 2 a 3 a 4 a  1 a 2 a 3 a 4 a

G-----------------|----------------|----------------|---------------|
D-----------------|----------------|----------------|---------------|
A-2---------------|5---------------|10--------------|9-9-9-9-9-9-9-9|
E-----------------|----------------|----------------|---------------|
  1 a 2 a 3 a 4 a  1 a 2 a 3 a 4 a  1 a 2 a 3 a 4 a  1 a 2 a 3 a 4 a

Chorus until end