Paramore - My Heart Chords & Tabs

 

My Heart Chords & Tabs

Paramore Chords & Tabs

Version: 1 Type: Bass Tab

My Heart Bass Tab

   
-------------------------------------------------------------------------------
			     PARAMORE  MY HEART
-------------------------------------------------------------------------------

Tabbed By : MNBZ
e-mail: who_lies@hotmail.com

Tuning: DADG

Intro
G|----------------------------------------------------------|
D|------------------------------------------------6h7p6-----|
A|------------------------------------------0000h7-----7----|
D|-2-22222-2h4\-7-77777-7h99\1111111111/6666----------------|

--------------------------------------------|
--------------------------------------------|
------------------------------------------0~|
-2-22222-2h4\-7-77777-7h99\1111111111/6666--|

Verse
G|-------------------|-----------------|-----------------|--------------|
D|---------------76--|---------------7-|---------------7-|--------------|
A|-4~--02~------7-7-|-4~--02~------7--|-4~--02~------7-|-4~--02~------|
D|----------67~------|----------67~----|----------67~----|----------67~-|

Chorus
G|----------------------------------------------------------|
D|------------------------------------------------6h7p6-----|
A|------------------------------------------0000h7-----7----|
D|-2-22222-2h4\-7-77777-7h99\1111111111/6666----------------|

--------------------------------------------|
--------------------------------------------|
------------------------------------------0~|
-2-22222-2h4\-7-77777-7h99\1111111111/6666--|

Verse 2
G|-------6~---------------------------------|------------------------------------|
D|------7----79~--67~--6h7p6----------------|------------------------------------|
A|-0h6p7--------------------7-4~--02~-------|-4~--02~---------4-4h6p7-2----------|
D|-------------------------------------67~--|----------67~-67~----------67~77777-|
[ Tab from: https://www.guitartabs.cc/tabs/p/paramore/my_heart_btab.html ]
Chorus
G|----------------------------------------------------------|
D|------------------------------------------------6h7p6-----|
A|------------------------------------------0000h7-----7----|
D|-2-22222-2h4\-7-77777-7h99\1111111111/6666----------------|

--------------------------------------------|
--------------------------------------------|
------------------------------------------0~|
-2-22222-2h4\-7-77777-7h99\1111111111/6666--|

Interlude
G|--6~--6-------------------|--6~--6--------------------|
D|-6---------67~-67~-7h9p7--|-6---9-9667---------------|
A|-------7~-----------------|---------7-----------------|
D|--------------------------|--------------777777999999-|

G|--------------------------------|-----------------------------------------|
D|--------------------------------|-----------------------------------------|
A|-4-44-4h6p7---------------------|-4-44-2h4p2------------------------------|
D|-----------2-22-2h4\7-77-77-7h9-|-----------42-22-2h4\7-77-77-7h9---------|

G|--------------------------------|-----------------------------------------|
D|--------------------------------|-----------------------------------------|
A|-4-44-4h6p7---------------------|-4-44-2h4p2------------------------------|
E|-----------2-22-2h4\7-77-77-7h9-|-----------42-22-2h4\7-77-77-7h9---------|

Outro                                                  End on
G|-----------------------------------------------|    |------|
D|-----------------------------------------------| X2 |------|
A|-4444444h6p7-----------------------------------|    |---4~-|
E|------------2222222h4\77777777777777777h9999---|    |------|

| /  slide up
| \  slide down
| h  hammer-on
| p  pull-off
| ~  let it ring

===============================================================================