Papa Roach - Time Is Running Out Acoustic Chords & Tabs

 

Time Is Running Out Acoustic Chords & Tabs

Papa Roach Chords & Tabs

Version: 1 Type: Tab

Time Is Running Out Acoustic Tab

   
Artist: Papa Roach
Title: Time is Running Out Acoustic
Tuning: Db Ab Db Gb Bb eb
Im pretty sure this is exact or really close. You can play it in normal drop D tuning 
play it one fret lower than what is shown.
I learned it in electric first and found the acoustic version is a half step down from 
so instead of learning it with new frets
i changed the tuning to match. Lol. You can find my youtube video playing the song at 
you
can figure out the strumming from the video.
Intro
eb|---------------------------------------------------------------------------|
Bb|---------------------------------------------------------------------------|
Gb|-1010101010101010101010101010101010--------------------121212121212121212--|
Db|-1010101010101010101010101010101010--101010101010101010101010101010101010--| 5x
Ab|-8-8-8-8-8-8-8-8-8-8-8-8-8-8-8-8-8---7-7-7-7-7-7-7-7-7-7-7-7-7-7-7-7-7-7---|
Db|-------------------------------------7-7-7-7-7-7-7-7-7-7-7-7-7-7-7-7-7-7---|

eb|--------------------------------------------------------------|
Bb|--------------------------------------------------------------|
Gb|-1010101010101010101010101010101010---------------------------|
Db|-1010101010101010101010101010101010-5~~~~~~~-----------------|
Ab|-8-8-8-8-8-8-8-8-8-8-8-8-8-8-8-8-8---5~~~~~~~-----------------|
Db|-------------------------------------5~~~~~~~-----------------|

eb|---------------------------------------------------------------------------|
Bb|---------------------------------------------------------------------------|
Gb|-121212121212--------------------------------------------------------------|
Db|-101010101010-12121212121212-5-5-5-5-5-5--10101010101010-----------------|
Ab|-88-88-8-8---10101010101010-5-5-5-5-5-5--7-7-7-7-7-7-7------------------|
Db|---------------10101010101010-5-5-5-5-5-5--7-7-7-7-7-7-7------------------|

eb|---------------------------------------------------------------------------|
Bb|---------------------------------------------------------------------------|
Gb|-121212121212--------------------------------------------------------------|
Db|-101010101010-12121212121212--5-5-5-5-5-5--7-7-7-5-5-5-------------------|
Ab|-8-8-8-8-8-8---10101010101010--5-5-5-5-5-5--7-7-7-5-5-5-------------------|
Db|---------------10101010101010--5-5-5-5-5-5--7-7-7-5-5-5-------------------|

Verse
eb|-----------------------------------|     eb|-----------------------------------|
Bb|-----------------------------------|     Bb|-----------------------------------|
Gb|-----------------------------------|     Gb|-----------------------------------|
Db|-3-3-3-3-3-3-3-----7-7-7-7-7-7-7---| 3x  Db|-3-3-3-3-3-3-3-------5~~~~~-hold---|
Ab|-3-3-3-3-3-3-3-----7-7-7-7-7-7-7---|     Ab|-3-3-3-3-3-3-3-------5~~~~~-hold---|
Db|-3-3-3-3-3-3-3-----7-7-7-7-7-7-7---|     Db|-3-3-3-3-3-3-3-------5~~~~~-hold---|


Chorus
eb|---------------------------------------------------------------------------|
Bb|---------------------------------------------------------------------------|
Gb|-121212121212--------------------------------------------------------------|
Db|-101010101010-12121212121212-5-5-5-5-5-5--10101010101010-----------------|
Ab|-88-88-8-8---10101010101010-5-5-5-5-5-5--7-7-7-7-7-7-7------------------|
Db|---------------10101010101010-5-5-5-5-5-5--7-7-7-7-7-7-7------------------|
                                                                                   2x
eb|---------------------------------------------------------------------------|
Bb|---------------------------------------------------------------------------|
Gb|-121212121212--------------------------------------------------------------|
Db|-101010101010-12121212121212--5-5-5-5-5-5--7-7-7-5-5-5-------------------|
Ab|-8-8-8-8-8-8---10101010101010--5-5-5-5-5-5--7-7-7-5-5-5-------------------|
Db|---------------10101010101010--5-5-5-5-5-5--7-7-7-5-5-5-------------------|

[ Tab from: https://www.guitartabs.cc/tabs/p/papa_roach/time_is_running_out_acoustic_tab.html ]
Verse 2
eb|-----------------------------------|     eb|-----------------------------------|
Bb|-----------------------------------|     Bb|-----------------------------------|
Gb|-----------------------------------|     Gb|-----------------------------------|
Db|-3-3-3-3-3-3-3-----7-7-7-7-7-7-7---| 3x  Db|-3-3-3-3-3-3-3-------5~~~~~-hold---|
Ab|-3-3-3-3-3-3-3-----7-7-7-7-7-7-7---|     Ab|-3-3-3-3-3-3-3-------5~~~~~-hold---|
Db|-3-3-3-3-3-3-3-----7-7-7-7-7-7-7---|     Db|-3-3-3-3-3-3-3-------5~~~~~-hold---|

Chorus 2
eb|---------------------------------------------------------------------------|
Bb|---------------------------------------------------------------------------|
Gb|-121212121212--------------------------------------------------------------|
Db|-101010101010-12121212121212-5-5-5-5-5-5--10101010101010-----------------|
Ab|-88-88-8-8---10101010101010-5-5-5-5-5-5--7-7-7-7-7-7-7------------------|
Db|---------------10101010101010-5-5-5-5-5-5--7-7-7-7-7-7-7------------------|
                                                                                   2x
eb|---------------------------------------------------------------------------|
Bb|---------------------------------------------------------------------------|
Gb|-121212121212--------------------------------------------------------------|
Db|-101010101010-12121212121212--5-5-5-5-5-5--7-7-7-5-5-5-------------------|
Ab|-8-8-8-8-8-8---10101010101010--5-5-5-5-5-5--7-7-7-5-5-5-------------------|
Db|---------------10101010101010--5-5-5-5-5-5--7-7-7-5-5-5-------------------|


Bridge
eb|---------------------------------------------------------------------------|
Bb|---------------------------------------------------------------------------|
Gb|-1010101010101010101010101010101010--------------------121212121212121212--|
Db|-1010101010101010101010101010101010--101010101010101010101010101010101010--| 5x
Ab|-8-8-8-8-8-8-8-8-8-8-8-8-8-8-8-8-8---7-7-7-7-7-7-7-7-7-7-7-7-7-7-7-7-7-7---|
Db|-------------------------------------7-7-7-7-7-7-7-7-7-7-7-7-7-7-7-7-7-7---|

eb|--------------------------------------------------------------|
Bb|--------------------------------------------------------------|
Gb|-1010101010101010101010101010101010---------------------------|
Db|-1010101010101010101010101010101010-5~~~~~~~-----------------|
Ab|-8-8-8-8-8-8-8-8-8-8-8-8-8-8-8-8-8---5~~~~~~~-----------------|
Db|-------------------------------------5~~~~~~~-----------------|


Chorus 3
eb|---------------------------------------------------------------------------|
Bb|---------------------------------------------------------------------------|
Gb|-121212121212--------------------------------------------------------------|
Db|-101010101010-12121212121212-5-5-5-5-5-5--10101010101010-----------------|
Ab|-88-88-8-8---10101010101010-5-5-5-5-5-5--7-7-7-7-7-7-7------------------|
Db|---------------10101010101010-5-5-5-5-5-5--7-7-7-7-7-7-7------------------|
                                                                                   2x
eb|---------------------------------------------------------------------------|
Bb|---------------------------------------------------------------------------|
Gb|-121212121212--------------------------------------------------------------|
Db|-101010101010-12121212121212--5-5-5-5-5-5--7-7-7-5-5-5-------------------|
Ab|-8-8-8-8-8-8---10101010101010--5-5-5-5-5-5--7-7-7-5-5-5-------------------|
Db|---------------10101010101010--5-5-5-5-5-5--7-7-7-5-5-5-------------------|


Ending
eb|-----------------x------------|     eb|----------------------------------|
Bb|-----------------x------------|     Bb|----------------------------------|
Gb|------------5-55x------------|     Gb|----------------------------------|
Db|-33333333---5-55x-----55555--| 3x  Db|-33333333-/55-lightly-55555-/77---|
Ab|-33333333---3-33x-----55555--|     Ab|-33333333-/55-lightly-55555-/77---|
Db|-33333333--------x-----55555--|     Db|-33333333-/55-lightly-55555-/77---|