Papa Roach - Not Listening Chords & Tabs

 

Not Listening Chords & Tabs

Papa Roach Chords & Tabs

Version: 3 Type: Bass Tab

Not Listening Bass Tab

/=slide up

intro/chorus
|------------------------------------------------------------------|
|------------------------------------------------------------------|
|--6-6-6-6-6-6-6-6-------------------------------------------------|
|------------------4-4-4-4-4-4-4-4-7-7-7-7-7-7-7-7-6-6-6-6-4-4-6-6-|
|------------------------------------------------------------------|

verses
|----------------------------------------|
|--------------------------4-------------|
|------6---------6-----2-2---2-------6---|
|--------4---4-4---4-------------6-6---4-|
|--4-4-----------------------------------|

chorus outro
|----------------------------|
|----------------------------|
|----------------------------|
|------3---------2-2-2-2-----|
|--4-4---1-2-0-0---------4---|

bridge I
|------------------------------------------------------------------------------|
|------------------------------------------------------------------------------|
|--------------13-13-11-11-----------------------------9-9-8-6-----------------|
|--11-11-11-11-------------9-9-9-8/10-11-12-11-7-7-7-7-------------------------|
|--------------------------------------------------------------0-0-0-0-0-0-0-0-|
[ Tab from: https://www.guitartabs.cc/tabs/p/papa_roach/not_listening_btab_ver_3.html ]
filler
|----------------------|
|----------------------|
|----------------------|
|------3---------------|
|--4-4---1-2-0-2-0-2-3-|

bridge II
|----------------------------------------------------------------------------|
|----------------------------------------------------------------------------|
|--6/13-13-13-13-13-13-13-13-------------------------------------------------|
|--------------------------------------------7-7-7-7-7-7-7-7-9-9-9-9-9-9-9-9-|
|----------------------------6-6-6-6-6-6-6-6---------------------------------|

solo
|----------------------------------------------------------|
|----------8-6---------------------------------------------|
|--6-6-6-6-----4-4-4-3/5-6-8-6---------9-8-----------------|
|------------------------------7-7-7-7-----9-9-9-9-9-9-9-9-|
|----------------------------------------------------------|

outro
|-------------------------------------------------|
|-------------------------------------------------|
|-------------------------------------------------|
|--6-4-6-----6-4-6-----6-4-6-----6-4-6------------|
|--------1-1-------1-1-------1-1-------1-11-1----|


intro/chorus x3
verses x4
intro/chorus x2
chorus outro x1

pause drums & guitar only

versus x4
chorus x2
bridge I x2
chorus outro x2
filler x1
chorus outro x1
bridge II x2
chorus x2
solo x1
chorus x1
outro x1