Panda - So Violento So Macabro Chords & Tabs

 

So Violento So Macabro Chords & Tabs

Panda Chords & Tabs

Version: 1 Type: Tab

So Violento So Macabro Tab

Intro

Gtr 1:

eb|-------------------------------------------------------|
Bb|--------13--12------13---12------1312--------1312----|
Gb|-------------------------------------------------------|
Db|--10-10--10----------------10-10--10-------------------|
Ab|----------------12-12---12-------------12-12----12-----|
Eb|-------------------------------------------------------|

[ Tab from: https://www.guitartabs.cc/tabs/p/panda/so_violento_so_macabro_tab.html ]
eb|-------------------------------------------------------|
Bb|--13-12-13-15-13---13-12-13-15-13----------------------|
Gb|-------------------------------------------------------|
Db|-------------------------------------------------------|
Ab|-------------------------------------------------------|
Eb|-------------------------------------------------------|
                                                    
                                                       (x2)
eb|------------------------------10--12---10---12--10-8~7| 
Bb|----------------------------8----8---8----8----8-8----|
Gb|--13-13-17-17-13-13-17-17-----------------------------|
Db|-------------------------------------------------------|
Ab|-------------------------------------------------------|
Eb|-------------------------------------------------------|

Intro

Gtr 2:
eb|------------------------------------------------------|
Bb|------------------------------------------------------|
Gb|6666666666--999999999--6666666666--9999999999---------|
Db|6666666666--999999999--6666666666--9999999999---------|
Ab|4444444444--777777777--4444444444--7777777777---------|
Eb|------------------------------------------------------|