Panda - Los Malaventurados No Lloran Chords & Tabs

 

Los Malaventurados No Lloran Chords & Tabs

Panda Chords & Tabs

Version: 2 Type: Bass Tab

Los Malaventurados No Lloran Bass Tab

los malaventurados no lloran
de pada
por 0zkR real moreno

  intro
G -----------------------------------------------------------------------|
D --------------------------------------6-------------6------------------|
A ----------4------------4--------7--7-----9--7-7--7-----9--7------------|
E ----5--5----7--5-5--5-----7--5-----------------------------------------|

G -----------------------------------------------------------------------|
D --------------------------------------5--7-5--------3--5-3-------------|
A ----------4--5-7--------4--5-7--5--5----------3--3---------------------|
E ----5--5----------5--5-------------------------------------------------|

  se que esta en algun lugar mejor...

G -----------------------------------------------------------------------|
D --------------------------------------6-------------6------------------|
A ----------4------------4--------7--7-----9--7-7--7-----9--7------------|
E ----5--5----7--5-5--5-----7--5-----------------------------------------|

G -----------------------------------------------------------------------|
D --------------------------------------5--7-5--------3--5-3-------------|
A ----------4--5-7--------4--5-7--5--5----------3--3---------------------|
E ----5--5----------5--5-------------------------------------------------|

  ...encontrar el medio para io...

G -----------------------------------------------------------------------|
D --------------------------------------6-------------6------------------|
A ----------4------------4--------7--7-----9--7-7--7-----9--7------------|
E ----5--5----7--5-5--5-----7--5-----------------------------------------|

G -----------------------------------------------------------------------|
D --------------------------------------5--7-5--------3--5-3-------------|
A ----------4--5-7--------4--5-7--5--5----------3--3---------------------|
E ----5--5----------5--5-------------------------------------------------|

  ...aqi todo estx peor...

G -----------------------------------------------------------------------|
D -----------------------------------------------------------------------|
A -------------------8-8-8-8-8-8-8-8-----------------4-4-4-4-2-2-2-2-----|
E ---5-5-5-5-5-5-5-5-----------------4-4-4-4-4-4-4-4---------------------|
                                    

  te quiero plxticxr...

G -----------------------------------------------------------------------|
D --------------------------------------6-------------6------------------|
A ----------4------------4--------7--7-----9--7-7--7-----9--7------------|
E ----5--5----7--5-5--5-----7--5-----------------------------------------|

G -----------------------------------------------------------------------|
D --------------------------------------5--7-5--------3--5-3-------------|
A ----------4--5-7--------4--5-7--5--5----------3--3---------------------|
E ----5--5----------5--5-------------------------------------------------|

  xki no canta

G -----------------------------------------------------------------------|
D --------------------------------------6-------------6------------------|
A ----------4------------4--------7--7-----9--7-7--7-----9--7------------|
E ----5--5----7--5-5--5-----7--5-----------------------------------------|

G -----------------------------------------------------------------------|
D --------------------------------------5--7-5--------3--5-3-------------|
A ----------4--5-7--------4--5-7--5--5----------3--3---------------------|
E ----5--5----------5--5-------------------------------------------------|

  se que ellx se siente mejor...

G -----------------------------------------------------------------------|
D --------------------------------------6-------------6------------------|
A ----------4------------4--------7--7-----9--7-7--7-----9--7------------|
E ----5--5----7--5-5--5-----7--5-----------------------------------------|

G -----------------------------------------------------------------------|
D --------------------------------------5--7-5--------3--5-3-------------|
A ----------4--5-7--------4--5-7--5--5----------3--3---------------------|
E ----5--5----------5--5-------------------------------------------------|

  ...ultilizxr el medio y llegxr...

G -----------------------------------------------------------------------|
D --------------------------------------6-------------6------------------|
A ----------4------------4--------7--7-----9--7-7--7-----9--7------------|
E ----5--5----7--5-5--5-----7--5-----------------------------------------|

G -----------------------------------------------------------------------|
D --------------------------------------5--7-5--------3--5-3-------------|
A ----------4--5-7--------4--5-7--5--5----------3--3---------------------|
E ----5--5----------5--5-------------------------------------------------|

  y decir qe todo estx peor...
[ Tab from: https://www.guitartabs.cc/tabs/p/panda/los_malaventurados_no_lloran_btab_ver_2.html ]
G -----------------------------------------------------------------------|
D -----------------------------------------------------------------------|
A -------------------8-8-8-8-8-8-8-8-----------------4-4-4-4-2-2-2-2-----|
E ---5-5-5-5-5-5-5-5-----------------4-4-4-4-4-4-4-4---------------------|
                                    

  te quiero abrxzxr...

G -----------------------------------------------------------------------|
D --------------------------------------6-------------6------------------|
A ----------4------------4--------7--7-----9--7-7--7-----9--7------------|
E ----5--5----7--5-5--5-----7--5-----------------------------------------|

G -----------------------------------------------------------------------|
D --------------------------------------5--7-5--------3--5-3-------------|
A ----------4--5-7--------4--5-7--5--5----------3--3---------------------|
E ----5--5----------5--5-------------------------------------------------|

  debo io recordxr...

G ---------------------------------------------------------------------------|
D ---------------------------------------------------------------------------|
A -------------------8-8-8--8--8-8-8--8-----------------4-4-4--4--2--2-2-2-2-|
E 5-5-5--5--5-5-5--5--------------------4-4-4--4--4-4-4----------------------|

  la deberix de odixr por...

G ---------------------------------------------------------------------------|
D ---------------------------------------------------------------------------|
A -------------------8-8-8--8--8-8-8--8-----------------4-4-4--4--2--2-2-2-2-|
E 5-5-5--5--5-5-5--5--------------------4-4-4--4--4-4-4----------------------|

  aprenddo mi lecioooon.

G -----------------------------------------------------------------------|
D -----------------------------------------------------------------------|
A -------------------8-8-8-8-8-8-8-8-----------------4-4-4-4-2-2-2-2-----|
E ---5-5-5-5-5-5-5-5-----------------4-4-4-4-4-4-4-4---------------------|

G -----------------------------------------------------------------------|
D -----------------------------------------------------------------------|
A -------------------8-8-8-8-8-8-8-8-----------------4-4-4-4-2-2-2-2-----|
E ---5-5-5-5-5-5-5-5-----------------4-4-4-4-4-4-4-4---------------------|

  se que estx n algun lugxr mejor...

G --------------------------------------------------------------------------|
D --------------------------------------------6-6-6-------------6-6-6-------|
A ---------4-4-4------------4-4-4-------7-7-7-------9-9-9-7-7-7-------9-9-9-|
E ----5-5-5-----7-7-7-5-5-5-------7-7-7-------------------------------------|

  donde no xyx xbuzo...

G -----------------------------------------------|
D -----------------------------------------------|
A ------4-4-4-5-5-7-7-7-------4-4-4-5-5-7-7-7----|
E 5-5-5-----------------5-5-5--------------------|

G -----------------------------------------------|
D ---------5-5-5-7-7-5-5-5-------3-3-3-5-5-3-3---|
A ---5-5-5-----------------3-3-3-----------------|
E -----------------------------------------------|

  encontrxr el medio pxrx io...

G -----------------------------------------------------------------------|
D -----------------------------------------------------------------------|
A -------------------8-8-8-8-8-8-8-8-----------------4-4-4-4-2-2-2-2-----|
E ---5-5-5-5-5-5-5-5-----------------4-4-4-4-4-4-4-4---------------------|

  qe xki todo estx peor...

G -----------------------------------------------------------------------|
D --------------------------------------6-------------6------------------|
A ----------4------------4--------7--7-----9--7-7--7-----9--7------------|
E ----5--5----7--5-5--5-----7--5-----------------------------------------|

G -----------------------------------------------------------------------|
D --------------------------------------5--7-5--------3--5-3-------------|
A ----------4--5-7--------4--5-7--5--5----------3--3---------------------|
E ----5--5----------5--5-------------------------------------------------|

  x su oido suspirxr...

G -----------------------------------------------------------------------|
D --------------------------------------6-------------6------------------|
A ----------4------------4--------7--7-----9--7-7--7-----9--7------------|
E ----5--5----7--5-5--5-----7--5-----------------------------------------|

G -----------------------------------------------------------------------|
D --------------------------------------5--7-5--------3--5-3-------------|
A ----------4--5-7--------4--5-7--5--5----------3--3---------------------|
E ----5--5----------5--5-------------------------------------------------|

  finxL

G -------------------------------------------|
D -------------------------------------------|
A ----------------------8-8-8--8--8-8-8--8---|
E ---5-5-5--5--5-5-5--5----------------------|

si tienes dudxz comentxrios o sugerencixs mi msn es orm_punk@hotmail.com