Panda - La Estrategia Perdida Chords & Tabs

 

La Estrategia Perdida Chords & Tabs

Panda Chords & Tabs

Version: 2 Type: Tab

La Estrategia Perdida Tab

   
----------------------------------------------------------------------
			     La Estrategia Perdida - Panda
----------------------------------------------------------------------
Tabbed by: Panda-Spirit
Email:

Tuning: E-A-D-G-B-E



Guitarra 1 
                                                               (x2)
Eb|----------------------------19-19-18-18-16-16-16---------------|
Bb|-16-16-16-17-17-17-14-14-14---------------------16-16--14------|        
Gb|---------------------------------------------------------------|
Db|---------------------------------------------------------------|
Ab|---------------------------------------------------------------|
Eb|---------------------------------------------------------------|

Eb|---------------------------19-19-18-18-16-16--16-17--17-18--18-19h21-19|
Bb|16-16-16-17-17-17-14-14-14------------------17-----18-----19-----------|
Gb|-----------------------------------------------------------------------|
Db|-----------------------------------------------------------------------|
Ab|-----------------------------------------------------------------------|
Eb|-----------------------------------------------------------------------|


Guitarra 2                                        (x2)
Eb|--------------------------------------------------|
Bb|--------------------------------------------------|
Gb|----------------------------6-6-6-6--9-9-9-9------|  
Db|-9-9-9-9--8-8-8-8--6-6-6-6--6-6-6-6--9-9-9-9------|
Ab|-9-9-9-9--9-9-9-9--6-6-6-6--4-4-4-4--7-7-7-7------|
Eb|-7-7-7-7--6-6-6-6--4-4-4-4------------------------|



Guitarra 1 

                                                  (x2)
Eb|----------------15---------------1515-14-15v-----|
Bb|-14-14-14-14-14----14-14-14-14-14-----------------|
Gb|--------------------------------------------------|
Db|--------------------------------------------------|
Ab|--------------------------------------------------|
Eb|--------------------------------------------------|

Eb|----------------15---------------15/1818-17-17-15v-|
Bb|-14-14-14-14-14----14-14-14-14-14-------------------|
Gb|----------------------------------------------------|
Db|----------------------------------------------------|
Ab|----------------------------------------------------|
Eb|----------------------------------------------------|


Precoro
Ambas Guitarras

Eb|---------------------|
Bb|---------------------|
Gb|---------------------|
Db|-9-9-9-9--6----------|
Ab|-9-9-9-9--6----------|
Eb|-7-7-7-7--4----------|

                                    (x2)
eb|------------------------------------|
Bb|------------------------------------|
Gb|------------------------------------| 
Db|-9-9-9-9--12/14-9-9-9-9-14/12-------|
Ab|-9-9-9-9--12/14-9-9-9-9-14/12-------|
Eb|-7-7-7-7--10/12-7-7-7-7-12/10-------|


Coro
AMBAS GUITARRAS


                                                   (x2)
Eb|---------------------------------------------------|
Bb|---------------------------------------------------|
Gb|----------6-6-6-6----------------------------------|  
Db|-9-9-9-9--6-6-6-6--6-6-6--6--2-2-2-2--4-4-4-4------|
Ab|-9-9-9-9--8-8-8-8--6-6-6--6--2-2-2-2--4-4-4-4------|
Eb|-7-7-7-7-----------4-4-4--4--0-0-0-0--2-2-2-2------|


Intro (x1)



GUITARRA 2

Eb|---------------------------------------------------|
Bb|---------------------------------------------------|                  
Gb|---------------------------------------------------|
Db|---------------------------------------------------|
Ab|--------------4v-7v-6v--------------4v7v--6/4v--|
Eb|--7v-6v4v---------------7v6v4v-----------------|

Guitarra 2 
Eb|----------------15---------------1515-14-15v-----|
Bb|-14-14-14-14-14----14-14-14-14-14-----------------|
Gb|--------------------------------------------------|
Db|--------------------------------------------------|
Ab|--------------------------------------------------|
Eb|--------------------------------------------------|

[ Tab from: https://www.guitartabs.cc/tabs/p/panda/la_estrategia_perdida_tab_ver_2.html ]
Eb|----------------15---------------15/1818-17-17-15v-|
Bb|-14-14-14-14-14----14-14-14-14-14-------------------|
Gb|----------------------------------------------------|
Db|----------------------------------------------------|
Ab|----------------------------------------------------|
Eb|----------------------------------------------------|


GUITARRA 2 
Eb|-----------------------------------------------|
Bb|-----------------------------------------------|
Gb|-----------------------------------------------|
Db|-----------------------------------------------|
Ab|-14(X8)16(8X)---------------------------------|
Eb|-----------------------------------------------|
 
GUITARRA 1 
Eb|-----------------------------------------------|
Bb|-----------------------------------------------|
Gb|-----------------------------------------------|
Db|-9-9-9-9-7-9-9-9-11-9-------------------------|
Ab|-----------------------------------------------|
Eb|-----------------------------------------------|


Ambas Guitarras 
Eb|---------------------|
Bb|---------------------|
Gb|---------------------|
Db|-9-9-9-9--6----------|
Ab|-9-9-9-9--6----------|
Eb|-7-7-7-7--4----------|



GUITARRA 2 

Eb|-----------------------------------------------|
Bb|-----------------------------------------------|
Gb|-----------------------------------------------|
Db|-----------------------------------------------|
Ab|-14(X8)16(8X)---------------------------------|
Eb|-----------------------------------------------|

GUITARRA 1 
Eb|-----------------------------------------------|
Bb|-----------------------------------------------|
Gb|-----------------------------------------------|
Db|-7-9-9-9-911-11-13-11-9-----------------------|
Ab|-----------------------------------------------|
Eb|-----------------------------------------------|

Ambas Guitarras                     (x2)
Eb|------------------------------------|
Bb|------------------------------------|
Gb|------------------------------------|  
Db|-9-9-9-9--12/14-9-9-9-9-14/12-------|
Ab|-9-9-9-9--12/14-9-9-9-9-14/12-------|
Eb|-7-7-7-7--10/12-7-7-7-7-12/10-------|

Luego sigue el coro

Coro 
AMBAS GUITARRAS

                                                   (x2)
Eb|---------------------------------------------------|
Ab|---------------------------------------------------|                     
Gb|----------6-6-6-6----------------------------------|  
Db|-9-9-9-9--6-6-6-6--6-6-6--6--2-2-2-2--4-4-4-4------|
Ab|-9-9-9-9--8-8-8-8--6-6-6--6--2-2-2-2--4-4-4-4------|
Eb|-7-7-7-7-----------4-4-4--4--0-0-0-0--2-2-2-2------|



Coro 
Guitarra 1 

                                                                  (x2)
Eb|----------------------------19-19-18-18-16-16-16------------------|
Bb|-16-16-16-17-17-17-14-14-14----------------------16-16-----14(x8)-|
Gb|------------------------------------------------------------------|
Db|------------------------------------------------------------------|
Ab|------------------------------------------------------------------|
Eb|------------------------------------------------------------------|

Eb|---------------------------19-19-18-18-16-16--16-17--17-18--18-19h21-19-|
Bb|16-16-16-17-17-17-14-14-14------------------17-----18-----19------------|
Gb|------------------------------------------------------------------------|
Db|------------------------------------------------------------------------|
Ab|------------------------------------------------------------------------|
Eb|------------------------------------------------------------------------|



Guitarra 2                                        (x2)                      
Eb|--------------------------------------------------| 
Bb|--------------------------------------------------|
Gb|----------------------------6-6-6-6--9-9-9-9------|  
Db|-9-9-9-9--8-8-8-8--6-6-6-6--6-6-6-6--9-9-9-9------|
Ab|-9-9-9-9--9-9-9-9--6-6-6-6--4-4-4-4--7-7-7-7------|
Eb|-7-7-7-7--6-6-6-6--4-4-4-4------------------------|


| /  slide up
| \  slide down
| h  hammer-on
| p  pull-off
| ~  vibrato
| +  harmonic
| x  Mute note
==============================================================